PrimaNota.ru - самый крупный в мире бесплатный архив песенных текстов, аккордов, табулатур и нот


Punkreas - Disgusto Totale - таба, видео

Регистрация Запомнить меня
Войти через:  Facebook Google Twitter Vk Yandex Mail.ru

Punkreas - Disgusto Totale - таба, видео

Печатать
Просмотров: 71
		   --------


DISGUSTO TOTALE

inizio

 ----------------------------------------------------------
 ------4-7-----4-7------------------4-7-----4-7-5-5-5-4-4--
 --5-5-----5-5------------------5-5-----5-5----------------   basso
 ------------------2-2-2-4-4-4-----------------------------

****************************************************************************
****

verse

 -----------7-7-5-5----------------------------------------
 ---0-0-4-4---------5-5-4-4-5-5-7-7-(5-7)------------------   basso
 ----------------------------------------------------------
 ----------------------------------------------------------

****************************************************************************
****

ritornello

 ----------------------------------------------------------
 ----------------------------------------------------------   basso
 ---5-5-5--5-5-5-------------------------------------------
 -----------------3-3-3--5-5-5-----------------------------

basso tabbato da Pippoflea

ma adesso... CHITARRA!!!

PUNKREAS - DISGUSTO TOTALE
Mando questa tab visto che quelle precedenti sono parecchio sbagliate. È una
grossa idea quella di tabbare i Punkreas, visto che le tab italiane sono
merce assai rara, e soprattutto quelle di gruppi cosí poco commerciali.
Ma veniamo al dunque, la tab:
riff 1&2 (nell'intro e fra i versi, dove è suonato insieme alla seconda
chitarra che suona il verso)

   x  .  x  .  x  .  x  .     x  .  x  .  x  .  x  .
e--------------------------|--------------------------|
B-----7--8--7--------------|-----7--8--7-----10-------|
G--7--------------9--------|--7-----------------------|
D--------------------------|--------------------------|
A--------------------------|--------------------------|
E--------------------------|--------------------------|

verso

   x  .  x  .  x  .  x  .     x  .  x  .  x  .  x  .
e-----2-----2-----2-----2--|-----3-----3-----5-----5--
B-----3-----3-----3-----3--|-----3-----3-----5-----5--
G-----2-----2-----2-----2--|-----4-----4-----6-----6--
D-----4-----4-----4-----4--|-----5-----5-----7-----7--
A--------------------------|--------------------------
E--------------------------|--------------------------

Probabilmente i Punkreas suonano solo le tre (o forse addirittura due) corde
più alte, ma per evitare errori mentre si suona conviene tenere l'accordo
completo con la mano sinistra, e poi colpire solo le prime corde con la
destra.
Naturalmente il verso va suonato con il solito stile Ska, con pennate verso
il mi basso in controtempo e colpendo leggermente le corde durante la
pennata verso il mi cantino mentre le si blocca con la mano sinistra.

ritornello

   x  .  x  .  x  .  x  .     x  .  x  .  x  .  x  .
e--------------------------|--------------------------|
B--------------------------|--------------------------|
G--7-----7--7--7-----7-----|--------------------------|
D--7-----7--7--7-----7-----|--5-----5--5--7-----7-----|
A--5-----5--5--5-----5-----|--5-----5--5--7-----7-----|
E--------------------------|--3-----3--3--5-----5-----|

riff 3 (subito prima del quinto verso)

   x  .  x  .  x  .  x  .
e--------------------------|
B--------------------------|
G--------------4--------6--|
D-----------5--------7-----|
A--------5--------7--------|
E--------------------------|





     
Добавлено: 08.08.2013
Другие материалы по этой песне:

Страница создана 01.06.2012
http://primanota.ru/punkreas/disgusto-totale-chords.htm
Привет, Гость.
Предлагаем пройти революционный курс по гитаре.
Подарок от PrimaNota.Ru, забирай!