PrimaNota.ru - самый крупный в мире бесплатный архив песенных текстов, аккордов, табулатур и нот


Punkreas - Canapa - аккорды и текст, таба, видео

Регистрация Запомнить меня
Войти через:  Facebook Google Twitter Vk Yandex Mail.ru

Punkreas - Canapa - аккорды и текст, таба, видео

Печатать
Просмотров: 75
Canapa
Punkreas
Punkreas - Canapa - Falso
gtr 2

x = palm muted

***Riff
|------------------------------------------------------------------------||
|------------------------------------------------------------------------||
|-----------5--4--5--7--7--7--5--4------------5--4--5--7--7--7--5--4-----||
|--5--5--5--5--4--5--7--7--7--5--4---5--5--5--5--4--5--7--7--7--5--4--0--||
|--5--5--5--3--2--3--5--5--5--3--2---5--5--5--3--2--3--5--5--5--3--2--0--||
|--3--3--3---------------------------3--3--3-----------------------------||

***Verse
|------------------------------------------------------------------------||
|------------------------------------------------------------------------||
|-------------------7-7-7-7-7-7-7-7--4-4-4-4-4-4-4-4--5-5-5-5-5-5-5-5----||
|--5-5-5-5-5-5-5-5--7-7-7-7-7-7-7-7--4-4-4-4-4-4-4-4--5-5-5-5-5-5-5-5----||
|--5-5-5-5-5-5-5-5--5-5-5-5-5-5-5-5--2-2-2-2-2-2-2-2--3-3-3-3-3-3-3-3----||
|--3-3-3-3-3-3-3-3-------------------------------------------------------||
   x x x x x x x x  x x x x x x x x  x x x x x x x x  x x x x x x x x
     
Добавлено: 07.09.2013
Другие материалы по этой песне:

Страница создана 31.05.2012
http://primanota.ru/punkreas/canapa-chords.htm
Привет, Гость.
Предлагаем пройти революционный курс по гитаре.
Подарок от PrimaNota.Ru, забирай!