PrimaNota.ru - самый крупный в мире бесплатный архив песенных текстов, аккордов, табулатур и нот


Punkreas - Alterazione Celebrale - таба, видео

Регистрация Запомнить меня
Войти через:  Facebook Google Twitter Vk Yandex Mail.ru

Punkreas - Alterazione Celebrale - таба, видео

Печатать
Просмотров: 92
Alterazione Celebrale – Punkreas

Inizio:
Per otto volte
---------|
---------|
---------|
---------|
--7-7-7--|
5--------|
Bridge iniziale:
----------------------------------------------------------|
----------------------------------------------------------|
----------------------------------------------------------|
----------------------6-7-6-------------------------------|
7-7-7-6-6-6-7-7-7--------7-7-7-6-6-6-7-7-7----------------|
---------------------------------------------------7-7-7--|
Strofe:
-----------------------------|
-----------------------------|
-----------------------------|
-----------------------------|
7-7-7-6-6-6-7-7-7-6-6--------|
-----------------------------|

Bridge dopo la 1^strofa:
--------------------------------------------------|
--------------------------------------------------|
--------------------------------------------------|
9-9-9---------------------------------------------|
9-9-9-10-10-10------------------------------------|
7-7-7-10-10-10-7-7-7-6-6-6-7-7-7-6-6-6------------|
--------8---8--8----------------------------------|

Ritornello:
------------------------------------|
------------------------------------|
---------------------9-9-9-9-9-9----|
10-10-10--7-7-7-9-9-9-9-9-9---------|
10-10-10--7-7-7-7-7-7-7-7-7---------|
8---8---8--5-5-5--------------------|

Assolo:
-12-12-12-12-12-12-12-12-12-12-12-12-----------------------------------------|
-------------------------------------------------12-12-12-12-12-12-12-12-12--|
-----------------------------------------------------------------------------|
-----------------------------------------------------------------------------|
-----------------------------------------------------------------------------|
-----------------------------------------------------------------------------|
Scusate se l'assolo non c'è tutto ma la seconda parte non la riesco a capire

Per insulti commenti bestemmie o altro mi trovate a questo indirizzo:
gaga-91@hotmail.it
Ciao!!!!!
Добавлено: 09.04.2012
Другие материалы по этой песне:
  • Аккорды и текст

Страница создана 09.04.2012
http://primanota.ru/punkreas/alterazione-celebrale-chords.htm
Привет, Гость.
Предлагаем пройти революционный курс по гитаре.
Подарок от PrimaNota.Ru, забирай!