PrimaNota.ru - самый крупный в мире бесплатный архив песенных текстов, аккордов, табулатур и нот


Punkass - Fucking Fool - бас-таба, видео

Регистрация Запомнить меня
Войти через:  Facebook Google Twitter Vk Yandex Mail.ru

Punkass - Fucking Fool - бас-таба, видео

Печатать
Просмотров: 96
- Web site: https://www.facebook.com/bandapunkass
- Punkass - Fucking Fool
- Tabbed by: Pacu, bassist from a brazilian punk rock band called Punkass.
- This is a song by Punkass (my band). If you wanna hear this song go to youtube, 
type "punkass fucking fool" and you'll find out.
___________________
Intro
G|-----------------------------|----|
D|-----------------5-----------|----|
A|-00000000-75323-3--3333-5323-|-4x-|
E|-----------------------------|----|

G|-------------------|----|
D|-------------------|----|
A|-00---000---00---0-|-1x-|
E|-------------------|----|

Verse
G|--------------------------------|----|
D|--------------------------------|----|
A|-0-0000-0-0000000-3-3333-5-5555-|-4x-|
E|--------------------------------|----|

Chorus
G|----------------------------------|----|
D|----------------------------------|----|
A|-1212---12-1212-12\-3-3333-5-5555-|-2x-|
E|----------------------------------|----|

Verse
G|--------------------------------|----|
D|--------------------------------|----|
A|-0-0000-0-0000000-3-3333-5-5555-|-4x-|
E|--------------------------------|----|

Chorus
G|----------------------------------|----|
D|----------------------------------|----|
A|-1212---12-1212-12\-3-3333-5-5555-|-2x-|
E|----------------------------------|----|

Bridge I
G|-----------------------------|----|
D|-----------------5-----------|----|
A|-00000000-75323-3--3333-5323-|-4x-|
E|-----------------------------|----|

Bridge II
G|---------------------------------------------------------------------|----|
D|---------------------------------------------------------------------|----|
A|-0-00000-0-000000-3-333333-3-333333-------------------0-000000---3---|-2x-|
E|------------------------------------3-333333-3-333333----------3---3-|----|

Bridge III
G|----------9-7-4-5-555555-7-5-4----------7----------------5---|----|
D|-7-777777----------------------5-555555---5-6-7-777777-5---5-|----|
A|-------------------------------------------------------------|-2x-|
E|-------------------------------------------------------------|----|

Ending
G|------------5---|----|---|----|
D|---777777-5---5-|----|-7-|----|
A|----------------|-4x-|---|-1x-|
E|----------------|----|---|----|

G|-----------------------------|----|
D|-----------------5-----------|----|
A|-00000000-75323-3--3333-5323-|-4x-|
E|-----------------------------|----|

G|-----------------|----|-----|----|
D|-----------------|----|-----|----|
A|-12-121212121212-|-3x-|-12\-|-1x-|
E|-----------------|----|-----|----|
Добавлено: 15.09.2013
Вам также может быть интересно:
Другие материалы по этой песне:
  • Аккорды и текст

Страница создана 15.09.2013
http://primanota.ru/punkass/fucking-fool-chords.htm
Привет, Гость.
Предлагаем пройти революционный курс по гитаре.
Подарок от PrimaNota.Ru, забирай!