PrimaNota.ru - самый крупный в мире бесплатный архив песенных текстов, аккордов, табулатур и нот


Punkass - Abrao Pro Fiscal - бас-таба

Регистрация Запомнить меня
Войти через:  Facebook Google Twitter Vk Yandex Mail.ru

Punkass - Abrao Pro Fiscal - бас-таба

Печатать
Просмотров: 74
Уроки эстрадного вокала в Санкт-Петербурге
- Web site: https://www.facebook.com/bandapunkass
- Punkass - Abraço Pro Fiscal
- Tabbed by: Pacu, bassist from a brazilian punk rock band called Punkass.
- This is a song by Punkass (my band). If you wanna here this song go to youtube e 
type "punkass abraco pro fiscal"and you'll find out.
__________
Intro
G|---------------------------|----|
D|---------------------------|----|
A|-5h7-777-5h7-777-5555------|-2x-|
E|----------------------5555-|----|

Verse
G|-----4-------------6-76-----|----|
D|--475-5-----4---697-7--976--|----|
A|-5-------475-5-7----------9-|-2x-|
E|--------5-------------------|----|

G|------6-97676----|----|
D|---697-7-----976-|----|
A|--7--------------|-1x-|
E|-----------------|----|

Chorus
G|-----------|------------|----|
D|-----------|-------7777-|----|
A|-7-5---056-|-7-5--------|-2x-|
E|-----5-----|-----5------|----|

Verse
G|-----4-------------6-76-----|----|
D|--475-5-----4---697-7--976--|----|
A|-5-------475-5-7----------9-|-2x-|
E|--------5-------------------|----|

G|------6-97676----|----|
D|---697-7-----976-|----|
A|--7--------------|-1x-|
E|-----------------|----|

Chorus
G|-----------|------------|----|
D|-----------|-------7777-|----|
A|-7-5---056-|-7-5--------|-2x-|
E|-----5-----|-----5------|----|

Bridge I
G|---------------------------|----|
D|---7--7--7--7--------------|----|
A|-55-55-55-55----7--7--7--7-|-2x-|
E|--------------55-55-55-55--|----|

G|-----------------------|----|
D|------------7--7-------|----|
A|-77777777-55-55---7--7-|-1x-|
E|----------------55-55--|----|

G|------------------------|----|
D|---------------7--------|----|
A|-77777777-5--55-----4-7-|-1x-|
E|----------------5-7-----|----|

Bridge II
G|------------------|----|
D|------------------|----|
A|-55555557---------|-1x-|
E|---------55555557-|----|

G|--------------------|----|
D|-----6797--75-------|----|
A|-7777-----5--7---56-|-4x-|
E|---------------57---|----|

G|---------|----|
D|---------|----|
A|-7~~-5~~-|-1x-|
E|---------|----|

Ending
G|----------------------|----|
D|---69--69---75--------|----|
A|-77---7---55------5h6-|-2x-|
E|---------------5h7----|----|

G|-------6h7p6---97676----|----|
D|-----69-----97------976-|----|
A|-7-77-------------------|-1x-|
E|------------------------|----|

G|-------6h7p6--------------|----|
D|-----69-----97-7h9-7-6-76-|----|
A|-7-77---------------------|-1x-|
E|--------------------------|----|

G|---------------------|----|
D|---6---6---75--------|----|
A|-77-7-7-7-5--5----56-|-1x-|
E|---------------5h7---|----|

G|----------------------------|----|
D|---6---6---75---------------|----|
A|-77-7-7-7-5--5-----5-6-7~~~-|-1x-|
E|---------------5-7----------|----|
Добавлено: 04.11.2013
Другие материалы по этой песне:
  • Аккорды и текст

Страница создана 04.11.2013
http://primanota.ru/punkass/abrao-pro-fiscal-chords.htm
Привет, Гость.
Предлагаем пройти революционный курс по гитаре.
Подарок от PrimaNota.Ru, забирай!