PrimaNota.ru - самый крупный в мире бесплатный архив песенных текстов, аккордов, табулатур и нот


Pungent Stench - Viva La Muerte - таба, видео

Регистрация Запомнить меня
Войти через:  Facebook Google Twitter Vk Yandex Mail.ru

Pungent Stench - Viva La Muerte - таба, видео

Печатать
Просмотров: 151
Авторы музыки: Martin Schirenc, Jacek Perkowski, Alexander Wank
Авторы текста: Martin Schirenc
Pungent Stench - Viva La Muerte

from the album Dirty Rhymes & Psychotronic Beats (1993)

Tuning - (Standard D) - D G C F A D
Tab difficulty: Novice-Intermediate

If you find errors contact me

V.linnas@hotmail.com


Intro (Use alot of vibrato)

||----------------------------------------------------------------------||
||----------------------------------------------------------------------||
||----------------------------------------------------------------------||
||-----------------5-5-3-5-3--------------------------------------------||
||-5-5-3-5-----7~~-----------5-3-5~---5-5-3-5-----7~~------5-3-5-3------||
||---------5-3--------------------------------5-3----5-5-3---------5-3~-||

||----------------------------------------------------------------------||
||----------------------------------------------------------------------||
||----------------------------------------------------------------------||
||-----------------5-5-3-5-3--------------------------------------------||
||-5-5-3-5-----7~~-----------5-3-5~~---5-5-3-5-----7~~------------------||
||---------5-3----------------------------------5-3-----5-3-5-3-5-0~~---||

Melody

||------------------------------||
||------------------------------||
||------------------------------||
||-2---5--(2)--2-4-5-7-5-4-2-0--|| 4x
||-2---5--(2)-------------------||
||-0---3--(0)-------------------||

Pre-verse

||----------------------------------------------||
||----------------------------------------------||
||----------------------------------------------||
||----------------------------------------------||
||-2---5---7---8--7--5----2---5---7----8--7--5--||
||-0---3---5---6--5--3----0---3---5----6--5--3--||

||-----------------------------------------------------------------||
||-----------------------------------------------------------------||
||-----------------------------------------------------------------||
||-----------------------------------------------------------------||
||-2--5--2--8----8--7--5--2----2--5--2--8----8--7--5--2---8--7--5--||
||-0--3--0--6----6--5--3--0----0--3--0--6----6--5--3--0---6--5--3--||

||-------------------------||
||-------------------------||
||-------------------------||
||-------------------------|| 4x
||-------------------------||
||-0-3-0-3-5-3-5~~0-3-5-3--||

Vocals start
Verse

||---------------------------------------||
||---------------------------------------||
||---------------------------------------||
||---------------------------------------|| 4x
||---------------------------------------||
||-000000000000--0-3-0-3-5-3-3~~0-3-5-3--||
   ............

||------------------------------------------------------------||
||------------------------------------------------------------||
||------------------------------------------------------------||
||------------------------------------------------------------||
||---------------5--3-5-3------------------------5--3-5-3-----||
||-0-5-0-3-5-3-5----------5-3~~----0-5-0-3-5-3-5----------5~3-||

||------------------------------||
||------------------------------||
||------------------------------||
||------------------------------||
||---------3-5~~----------3-5~~-||
||-3333535--------3333535-------||

||------------------------------------------------------------||
||------------------------------------------------------------||
||------------------------------------------------------------||
||------------------------------------------------------------||
||---------------5--3-5-3------------------------5--3-5-3-----||
||-0-5-0-3-5-3-5----------5-3~~----0-5-0-3-5-3-5----------5~3-||

||------------------------------||
||------------------------------||
||------------------------------||
||------------------------------||
||---------3-5~~----------3-5~~-||
||-3333535--------3333535-------||

||---------------------------------------||
||---------------------------------------||
||---------------------------------------||
||---------------------------------------|| 3x
||---------------------------------------||
||-000000000000--0-3-0-3-5-3-5~~0-3-5-3--||
   ............

||------------------------------||
||------------------------------||
||------------------------------||
||------------------------------||
||------------------------------||
||-000000000000--0-3-0-3-5-3-5--||
   ............

Second time played the solo comes in

||-----------------------------------------------------------------||
||-----------------------------------------------------------------||
||-----------------------------------------------------------------||
||-----------------------------------------------------------------|| 2x 
||-2--5--2--8----8--7--5--2----2--5--2--8----8--7--5--2---8--7--5--||
||-0--3--0--6----6--5--3--0----0--3--0--6----6--5--3--0---6--5--3--||


Solo (I improvised it very much, not fully correctly but fine for me)


    Bend!          Shred!
||--------------------------------------------------------------|| 
||-12b-12b-10---12-14-12-14-12-14-12-14-10-12-10-12-10-12-10-12-||
||--------------------------------------------------------------||
||--------------------------------------------------------------||
||--------------------------------------------------------------||
||--------------------------------------------------------------||
                                        
||--------------------------------------------------------||
||--------------------------------------------------------||
||-12-10-12-10-12-10-8-10-8-10-8-10-8-10-8-8--12b-12b-10--||
||--------------------------------------------------------||
||--------------------------------------------------------||
||--------------------------------------------------------||

Hammers-ons and pull offs!

||--------------------------------------------------------||
||--------------------------------------------------------||
||14-12-14-12-12-10-12-10---------------------10-12-10-12-||
||-----------------------12-10-12-10-8-10-8-10------------||
||--------------------------------------------------------||
||--------------------------------------------------------||
                              Bends
||--------------------------------------||
||-10-12-10-12-12-14-12-14--14b-14b-12--||
||--------------------------------------||
||--------------------------------------||
||--------------------------------------||
||--------------------------------------||

              Shred!
||-------------------------------------------------|| 
||-12-14-12-14-12-14-12-14-10-12-10-12-10-12-10-12-||
||-------------------------------------------------||
||-------------------------------------------------||
||-------------------------------------------------||
||-------------------------------------------------||

...                                             
                                                Bend!
||--------------------------------------------------------||
||--------------------------------------------------------||
||-12-10-12-10-12-10-8-10-8-10-8-10-8-10-8-8--12b-12b-10--||
||--------------------------------------------------------||
||--------------------------------------------------------||
||--------------------------------------------------------||

Hammers-ons and pull offs!

||--------------------------------------------------------||
||--------------------------------------------------------||
||14-12-14-12-12-10-12-10---------------------10-12-10-12-||
||-----------------------12-10-12-10-8-10-8-10------------||
||--------------------------------------------------------||
||--------------------------------------------------------||
                              
||-------------------------||
||-10-12-10-12-12-14-12-14-||
||-------------------------||
||-------------------------||
||-------------------------||
||-------------------------||

Bridge

||----------------------------------------------------------||
||----------------------------------------------------------||
||----------------------------------------------------------||
||----------------------------------------------------------||
||---------------------2-5-2-8-7-5-2------------------------||
||-5-0-5-3-5-3-5-3-5-3-0-3-0-6-5-3-0------------------------||
                       ************* These between
Bass fill
*
Drum fill
*
Yea baby!
*
Yau!

||-------------------------||
||-------------------------||
||-------------------------||
||-------------------------|| 4x
||-------------------------||
||-0-3-0-3-5-3-5~~0-3-5-3--|| End with -555535-

Verse

||---------------------------------------||
||---------------------------------------||
||---------------------------------------||
||---------------------------------------|| 4x
||---------------------------------------||
||-000000000000--0-3-0-3-5-3-5~~0-3-5-3--||
   ............

||------------------------------------------------------------||
||------------------------------------------------------------||
||------------------------------------------------------------||
||------------------------------------------------------------||
||---------------5--3-5-3------------------------5--3-5-3-----||
||-0-5-0-3-5-3-5----------5-3~~----0-5-0-3-5-3-5----------5~3-||

||------------------------------||
||------------------------------||
||------------------------------||
||------------------------------||
||---------3-5~~----------3-5~~-||
||-3333535--------3333535-------||

||------------------------------------------------------------||
||------------------------------------------------------------||
||------------------------------------------------------------||
||------------------------------------------------------------||
||---------------5--3-5-3------------------------5--3-5-3-----||
||-0-5-0-3-5-3-5----------5-3~~----0-5-0-3-5-3-5----------5~3-||

||------------------------------||
||------------------------------||
||------------------------------||
||------------------------------||
||---------3-5~~----------3-5~~-||
||-3333535--------3333535-------||

||---------------------------------------||
||---------------------------------------||
||---------------------------------------||
||---------------------------------------|| 4x
||---------------------------------------||
||-000000000000--0-3-0-3-5-3-5~~0-3-5-3--||
   ............

Melody

||------------------------------||
||------------------------------||
||------------------------------||
||-2---5--(2)--2-4-5-7-5-4-2-0--|| 4x
||-2---5--(2)-------------------||
||-0---3--(0)-------------------||

Final solo rhythm part

||---------------------||
||---------------------||
||---------------------||
||-2---5---7-(7)(7)----||
||-2---5---7-(7)(7)----||
||-0-0-3-0-5-(5)(5)-0--||
     .   .          .

Ending Solo (Play with vibrato and feeling!)

||-------------------------------------------------------------------------||
||------------------------------------------------8-10hb-10b--8-10-10hb10b~||
||---------------------------9-7-9---9-7-9-7-9b----------------------------||
||-2222-4444-5555-77-9hb9b-------------------------------------------------||
||-------------------------------------------------------------------------||
||-------------------------------------------------------------------------||


||----------------------||---------------------------||
||----------------------||---------------------------||
||-9~~7-9-7-9-7---------||--9b-7-9-7-----------------||
||--------------9-9hb-7~||-----------9hb-7~~9-7------|| Play this four times,
||----------------------||----------------------9-7--|| With feeling!
||----------------------||---------------------------||

                                      Listen the solo and improvise! 
||-------------------------------------------------------------------------|| 
||--------------------------10-13-13hb-13-13b~~13-11-13hb-13b-13-11--------||
||----------------9-11-9-11----------------------------------------12-10-12||
||--------9-11-9-11--------------------------------------------------------||
||9-11-9-11----------------------------------------------------------------||
||-------------------------------------------------------------------------||


||------------------------------------------------------------------------||
||------------------------------------------------------------------------||
||-12-14~14hb-14b--14-12-14b-14b-14b--14-12---14-12-14-12-15-12-----------||
||--------------------------------------------------------------14-12-14~-||
||------------------------------------------------------------------------||
||------------------------------------------------------------------------||

Solo fades away... be free to improvise with those last notes alittle more.

Song flow:

Intro
Melody
Pre-verse
Verse
Solo
Bridge
Verse
Melody
Final solo


Rate & Comment!
Добавлено: 05.07.2012
Другие материалы по этой песне:

Страница создана 04.07.2012
http://primanota.ru/pungent-stench/viva-la-muerte-chords.htm
Привет, Гость.
Предлагаем пройти революционный курс по гитаре.
Подарок от PrimaNota.Ru, забирай!