PrimaNota.ru - самый крупный в мире бесплатный архив песенных текстов, аккордов, табулатур и нот


Punchline - Somewhere In The Dark - таба, видео

Регистрация Запомнить меня
Войти через:  Facebook Google Twitter Vk Yandex Mail.ru

Punchline - Somewhere In The Dark - таба, видео

Печатать
Просмотров: 44
-------------------------------------------------------------------------------
                             Somewhere In The Dark - Punchline
-------------------------------------------------------------------------------
Tabbed by: Grapefruit7

Tuning: Standard (EADGBe)

Intro (Guitar doesn't play, but these are the chords piano plays)


    C       Am      G       F
e|-------------------------------------|
B|--5-5-5-5----------------------------|
G|--5-5-5-5-5-5-5-5-4-4-4-4-2-2-2-2----| X2
D|--5-5-5-5-7-7-7-7-5-5-5-5-3-3-3-3----|
A|--3-3-3-3-7-7-7-7-5-5-5-5-3-3-3-3----| 
E|----------5-5-5-5-3-3-3-3-1-1-1-1----|


(Then you....)

    G     F
e|---------------------------------------------|
B|--12----10---10---10---10---10---10-10-------|
G|--12----10---10---10---10---10---10-10-------|
D|--12----10---10---10---10---10---10-10-------|
A|--10----8----8----8----8----8----8--8--------|
E|---------------------------------------------|


(And I...)
    G     F         G/D
e|--------------------------|
B|--12----10---10---12~-----|
G|--12----10---10---12~-----|
D|--12----10---10---12~-----|
A|--10----8----8------------|
E|--------------------------|


(I carried around my phone...) [At this point guitar comes in]

Verse

    C       Am      G       F
e|----------------------------------|
B|--5---5---------------------------|
G|--5---5---5---5---4---4---2---2---| X2
D|--5---5---7---7---5---5---3---3---|
A|--3---3---7---7---5---5---3---3---| 
E|----------5---5---3---3---1---1---|


    G     F
e|---------------------------------------------|
B|--12----10---10---10---10---10---10-10-------|
G|--12----10---10---10---10---10---10-10-------|
D|--12----10---10---10---10---10---10-10-------|
A|--10----8----8----8----8----8----8--8--------|
E|---------------------------------------------|


    G     F         G/D
e|--------------------------|
B|--12----10---10---12~-----|
G|--12----10---10---12~-----|
D|--12----10---10---12~-----|
A|--10----8----8------------|
E|--------------------------|

Chorus

     C             C/B          Am
e|---------8-------------7------------8------------8---------|
B|-------8-----8-------8-----8------8-----8------8-----8-----|
G|---5h7-----------4h7----------5h7----------5h7-------------|
D|-----------------------------------------------------------|
A|-----------------------------------------------------------|
E|-----------------------------------------------------------|

     F          G
e|--------------7-5-3------|
B|------------8-------6----|
G|---4h5h7/9---------------|
D|-------------------------|  X2 Both bars
A|-------------------------|
E|-------------------------|

Solo

   Am                 Dm                 F               C       C/B  
e|--------------------------------------------------------------------------------|
B|-----------8------------------8-------------------------------------------------|
G|-9~----7h9---9p7----7~----7h9---9p7----7------------9--9---7\5h7--4h5p4-4-2~----|
D|-----------------10-----------------10----10--5~--------------------------------|
A|--------------------------------------------------------------------------------|
E|--------------------------------------------------------------------------------|

   Am                 Dm                 F               C       C/B  
E|--------------------------------------------------------------------------------|
B|-----------8------------------8-------------------------------------------------|
G|-9~----7h9---9p7----7~----7h9---9p7----7------------9--9---7\5h7--4h5p4-4-5~----|
D|-----------------10-----------------10----10--5~--------------------------------|
A|--------------------------------------------------------------------------------|
E|--------------------------------------------------------------------------------|

In between the Solo and Verse two just play the C chord on beats 2 and 4.

The second time the solo is played the ending is a little bit different, it goes like this.

   Am                 Dm                 F               C       C/B  
E|--------------------------------------------------------------------------------|
B|-----------8------------------8-------------------------------------------------|
G|-9~----7h9---9p7----7~----7h9---9p7----7------------9--9---7\5h7--4h5p4-4-2~----|
D|-----------------10-----------------10----10--5~--------------------------------|
A|--------------------------------------------------------------------------------|
E|--------------------------------------------------------------------------------|

   Am                 Dm                 F               C       C/B  
E|---------------------------------------------------------------12--12-----------|
B|-----------8---------10-------8------------------------13--------------13-------|
G|-9~----7h9---9p7----------7h9---9p7----7----------------------------------------|
D|-----------------10-----------------10------------------------------------------|
A|------------------------------------------7777--8--7----------------------------|
E|--------------------------------------------------------------------------------|

Then during the last chorus the riff is not played, but the chords are played as power chords, and the song ends
like this:

Ending

     C    C/B  Am
e|------------------------|
B|------------------------|
G|---5555-5555-22222222---|
D|---5555-5555-22222222---|
A|---3333-2222-00000000---|
E|------------------------|


    F5     G5     Am5
e|---------------------|
B|---------------------|
G|---------------------|
D|--3~-----5~-----7-~--|
A|--3~-----5~-----7~---|
E|--1~-----3~-----5~---|

Song order

Intro X1
Verse X1
Chorus X1
Solo X1
Verse X1
Chorus X1
Solo X1
Chorus X1
Ending X1



************************************

| /   slide up
| \   slide down
| h   hammer-on
| p   pull-off
| ~   Sustain Note
| +   harmonic
| x   Mute note
| b   Bend
| pb  Pre-bend
| br  Bend release
| pbr Pre-bend release
| brb Bend release bend

************************************
Добавлено: 14.06.2016
Другие материалы по этой песне:
  • Аккорды и текст

Страница создана 14.06.2016
http://primanota.ru/punchline/somewhere-in-dark-chords.htm
Привет, Гость.
Предлагаем пройти революционный курс по гитаре.
Подарок от PrimaNota.Ru, забирай!