PrimaNota.ru - самый крупный в мире бесплатный архив песенных текстов, аккордов, табулатур и нот


Punch - Positively God Free - таба, видео

Регистрация Запомнить меня
Войти через:  Facebook Google Twitter Vk Yandex Mail.ru

Punch - Positively God Free - таба, видео

Печатать
Просмотров: 72
Positively God Free
Punch
Push Pull

Standard tuning

***I haven't gone into detail on strum patterns.
Figure them out yourself.***

Bass intro (D, A A A A A A A A...)

------------------------------------------|
------------------------------------------|
------------------------------------------|
------------------------------------------|
--3------5--55--3-7-----------------------|
--1-1111-3--33--1-5-----------------------|
    ....


-----------------------------------------|
-----------------------------------------|
-----------------------------------------|
------------------5----------------------|
--3------5--55--3-3--55555555------------|
--1-1111-3--33--1----33333333------------|
    ....             ........



"I reject your god"
-----------------------------------------|
-----------------------------------------|
-----------------------------------------|
--7--------------5-7---------------------|
--5-7--------5-7-3/5-5-7-3-------5-------|
----5--------3/5-----3/5-1-------3-------|



"You are no better"
------------------------------------------|
------------------------------------------|
---------------------------2p0-0---2p0-0--|
--7--------------5-7----------------------|
--5-7--------5-7-3/5-5-7-3-------5--------|
----5--------3/5-----3/5-1-------3--------|



"Wooooorse"
----------------------------------------|
----------------------------------------|
----------------------------------------|
--------------------------------5-------|
--7----------------5-7----------3-5555--|
--5----------------3/5------------3333--|
                                  ....


0:49
----------------------------------------------|
----------------------------------------------|
----------------------------------------------|
-------5----------5----------5-----7----5-----|
--7----3--5--7----3--5--7----3--5--5----3--5--|
--5-------3--5-------3--5-------3----------3--|


1:05
------------------------------------------|
------------------------------------------|
------------------------------------------|
--5----7--------------------------5----7--|
--3----5----(5)/7--------5-7-5-7--3----5--|
------------(3)/5-5------3/5-3/5----------|
                  .

1:11
----------------------------|
----------------------------|
----------------------------|
------------------5----7----|
--5-7-5-7-5-7-5-7-3----5----|
--3/5-3/5-3/5-3/5-----------|


1:15
----------------------------------------------|
----------------------------------------------|
----------------------------------------------|
------------------------5----7----------------|
--(5)/7--------5-7-5-7--3----5----7-----------|
--(3)/5-5------3/5-3/5------------5-----------|
        .


*dist/feedback
(bass: D, A A A, F F F F...)


"SOMETIMES IN LIFE"
-----------------------------------------------------|
-----------------------6-5-3-------------------------|
--5--7--4------5--------------5--7--4-------5--------|
-----------------------------------------------------|
--------------------------------------------3--------|
-----------------------------------------------------|


"I'll believe..."
----------------------------------------------|
----------------------------------------------|
----------------------------------------------|
------5-------5---7---------5-------7---------|
--7---3---5---3---5-----3---3---5---5---5-----|
--5-------3-------------1-------3-------3-----|



Tell me if it sucks.
Don't do drugs.


Signed to Deathwish yo!
http://www.facebook.com/pages/Punch/165122930174113
www.last.fm/music/Punch
www.myspace.com/punchcrew
Добавлено: 20.06.2013
Другие материалы по этой песне:
  • Аккорды и текст

Страница создана 20.06.2013
http://primanota.ru/punch/positively-god-free-chords.htm
Привет, Гость.
Предлагаем пройти революционный курс по гитаре.
Подарок от PrimaNota.Ru, забирай!