PrimaNota.ru - самый крупный в мире бесплатный архив песенных текстов, аккордов, табулатур и нот


Punch Brothers - Whos Feeling Young Now - аккорды и текст, видео

Регистрация Запомнить меня
Войти через:  Facebook Google Twitter Vk Yandex Mail.ru

Punch Brothers - Whos Feeling Young Now - аккорды и текст, видео

Печатать
Просмотров: 31
Whos Feeling Young Now
Punch Brothers
-------------------------------------------------------------------------------
                   WHO'S FEELING YOUNG NOW? - Punch Brothers
-------------------------------------------------------------------------------

Tuning: Standard (for Studio Version)
CAPO 1 for Live Version

Chords:

Dm  | xx7765 / x57765
Am  | xx7555 / 577555
Gm  | xx5333 / 355333
A/E | xx2225 / 002220
Eb  | xx1343 / x68876
Cm  | xx5543
F   | 133211
G#  | 466544
F#  | 244322
Db  | x46664

Intro
=====

      Dm              Am              Gm              Gm      A/E
e|----5-5-x-x-x-x-x-x-5-5-x-x-x-x-x-x-3-3-x-x-x-x-x-x-3-3-x-x-5-5-x-x---|
B|----6-6-x-x-x-x-x-x-5-5-x-x-x-x-x-x-3-3-x-x-x-x-x-x-3-3-x-x-2-2-x-x---|
G|----7-7-x-x-x-x-x-x-5-5-x-x-x-x-x-x-3-3-x-x-x-x-x-x-3-3-x-x-2-2-x-x---|
D|----7-7-x-x-x-x-x-x-7-7-x-x-x-x-x-x-5-5-x-x-x-x-x-x-5-5-x-x-2-2-x-x---|
A|----------------------------------------------------------------------|
E|----------------------------------------------------------------------|

      Dm              Am              Gm              A/E
e|----5-5-x-x-x-x-x-x-5-5-x-x-x-x-x-x-3-3-x-x-x-x-x-x-5--5--5-x-x-x-x---|
B|----6-6-x-x-x-x-x-x-5-5-x-x-x-x-x-x-3-3-x-x-x-x-x-x-2--2--2-x-x-x-x---|
G|----7-7-x-x-x-x-x-x-5-5-x-x-x-x-x-x-3-3-x-x-x-x-x-x-2--2--2-x-x-x-x---|
D|----7-7-x-x-x-x-x-x-7-7-x-x-x-x-x-x-5-5-x-x-x-x-x-x-2--2--2-x-x-x-x---|
A|----------------------------------------------------------------------|
E|----------------------------------------------------------------------|

(this riff continues throughout half the verse)

Verse
=====

Dm
I wasn't tired
Am
I'm never tired
Gm               Gm      A/E
Youth will not be wasted on this one
Dm
In a dark room
Am                 Gm       A/E
Another dark room

             Dm 
She said hey you're gonna like this
Am                  Gm              Gm  A/E   Eb
It's easy to like by candlelight if not under the sun
          Cm        F
Who's feeling young now?

Dm
Dark room to doorway
Am
Doorway to sidewalk
Gm                Gm     A/E
Youth will not be wasted on this one
Dm
In a thick fog
Am                Gm     A/E
Another thick fog

         Dm
I said hey this isn't like me
Am                      Gm                  Gm  A/E   Eb
It's a little like there could be something new under the sun
          Cm        (F)
Who's feeling young now?

Chorus
======

F   G#   F   G#

F                                               G#
They try to tell us and at times we try to listen
F                                                             G#
But we can't hear a thing when all we think about are all the things we think we might be missing
F
'Cause if we think we are we are
                          G#
And if we don't we aren't worth the time it takes to think of making love with who we're kissing
F                                                   G#
They tried to tell us and at times we tried to listen
No!

Break
=====   

    Gm                                                               A                 G#
e|----------/6--------------/6--------------/8---------------/8---------------/9-----------------/8---------|
B|---------------8---------------8--------------8-----------------8----------------8------------------8-----|
G|----------------------------------------------------------------------------------------------------------|
D|----------------------------------------------------------------------------------------------------------|
A|----------------------------------------------------------------------------------------------------------|
E|--3-3-3-3---------3-3-3-3---------3-3-3-3---------3-3-3-3----------5-5-5-5-----------4-4-4-4--------------|

    G#                                                               A#                A
e|----------/7--------------/7--------------/9---------------/9---------------/10----------------/9---------|
B|---------------9---------------9--------------9-----------------9----------------9------------------9-----|
G|----------------------------------------------------------------------------------------------------------|
D|--6-6-6-6---------6-6-6-6---------6-6-6-6---------6-6-6-6----------8-8-8-8-----------7-7-7-7--------------|
A|--6-6-6-6---------6-6-6-6---------6-6-6-6---------6-6-6-6----------8-8-8-8-----------7-7-7-7--------------|
E|--4-4-4-4---------4-4-4-4---------4-4-4-4---------4-4-4-4----------6-6-6-6-----------5-5-5-5--------------|

    G#
e|----------/7----------------7/---------------------------------|
B|---------------9-----------------------------------------------|
G|---------------------------------------------------------------|
D|--6-6-6-6---------6--6--6--------------------------------------|
A|--6-6-6-6---------6--6--6--------------------------------------|
E|--4-4-4-4---------4--4--4--------------------------------------|

Eb  F#

Eb                                              F#
They try to tell us and at times we try to listen
Eb                                                            F#
But we can't hear a thing when all we think about are all the things we think we might be missing
Eb
'Cause if we think we are we are
                          F#
And if we don't we aren't worth the time it takes to think of making love with who we're kissing
Eb                                          
They tried to tell us and at times we tried to listen

F#      A   Cm  Eb          Db 
x x x x x x x x x x x x x x x   (repeat 3 times)

F#      A   Dm  Am  Gm  A/E (Dm)

Verse
=====

Dm
She wasn't perfect
Am
Nobody's perfect
Gm                Gm     A/E
Gray hair ain't a crown of wisdom
Dm
When you're a young man
Am                     Gm   A/E
'Til you're an old man
            Dm
She says hey you look a lot like
Am                  Gm              Gm  A/E    Eb               Cm   Dm
Someone I liked who flew just far enough under the sun to never come down
Am            Gm
Who's feeling young

Chorus
======

F                                               G#
They try to tell us and at times we try to listen
F                                                             G#
But we can't hear a thing when all we think about are all the things we think we might be missing
F
'Cause if we think we are we are
                          G#
And if we don't we aren't worth the time it takes to think of making love with who we're kissing
F
They tried to tell us and at times we tried to listen
G#
They tried to tell us and at times we tried to listen
F                                                   G#
They tried to tell us and at times we tried to listen

Добавлено: 24.05.2016
Другие материалы по этой песне:
  • Аккорды и текст

Страница создана 24.05.2016
http://primanota.ru/punch-brothers/whos-feeling-young-now-chords.htm
Привет, Гость.
Предлагаем пройти революционный курс по гитаре.
Подарок от PrimaNota.Ru, забирай!