PrimaNota.ru - самый крупный в мире бесплатный архив песенных текстов, аккордов, табулатур и нот


Punch Brothers - Reptilia - аккорды и текст, видео

Регистрация Запомнить меня
Войти через:  Facebook Google Twitter Vk Yandex Mail.ru

Punch Brothers - Reptilia - аккорды и текст, видео

Печатать
Просмотров: 52
Уроки эстрадного вокала в Санкт-Петербурге
Reptilia
Punch Brothers
Standard Tuning EADGBe 

Their fantastic Strokes cover. 
https://www.youtube.com/watch?v=qayc6yJXG-8


Intro: Bm


Bm                                  Em
|--------------------------------------------------------------------|
|--------------------------------------------------------------------|
|-7-7---7----------7-7---7----------------------7----------------7---|
|---------9---7------------9---7----6-6---6-9--------6-6---6-9-------|
|--------------------------------------------------------------------|
|--------------------------------------------------------------------| [x2]


Verse 1: 

Bm                         E          E7
He seemed impressed by the way you came in.
Bm                  E               E7
Tell us a story, I know you're not boring
Bm                    E          E7
I was afraid that you would not insist.
Bm                        E              E7
You sound so sleepy, just take this, now leave me
Bm                                            E      E7
I said please don't slow me down if I'm going too fast
Bm                      E     E7
You're in a strange part of our town...


|-----------------------|-----------------------|---------------------|-----------------------|
|-15-15---15-10-10---10-|-12-12---12-14-14---14-|-12-12--12-14-14--14-|-10-10---10-15-15------|
|-x--x----x--x--x----x--|-x--x----x--x--x----x--|-x--x---x--x--x---x--|-x--x----x--x--x-------|
|-x--x----x--x--x----x--|-x--x----x--x--x----x--|-x--x---x--x--x---x--|-x--x----x--x--x-------|
|-14-14---14-9--9----9--|-10-10---10-12-12---12-|-10-10--10-12-12--12-|-9--9----9--14-14------|
|-----------------------|-----------------------|---------------------|-----------------------|


Chorus 1:

Bm    F#m   G         A      G     A     F#m       Bm
Yeah, the night's not over, you're not trying hard enough,
      F#m   G        A        G     A     F#m    Bm
Our lives are changing lanes, you ran me off the road,
  F#m    G  A     G   A     F#m    Bm
The wait is over, I'm now taking over,
  F#m     G     A          G   A    G    F#m          Bm
You're no longer laughing, I'm not driving fast enough


Verse 2: 

Bm                    E        E7  
Now every time that I look at myself
Bm                         E            E7
I thought I told you, this world is not for you
Bm                            E         E7
The room is on fire as she's fixing her hair
Bm                       E             E7
You sound so angry, just calm down you found me
Bm                                            E    E7
I said please don't slow me down if I'm going too fast
Bm                       E      E7
You're in a strange part of our town...


Chorus 2:

Bm    F#m   G         A      G     A     F#m       Bm
Yeah, the night's not over, you're not trying hard enough,
      F#m   G        A        G     A     F#m    Bm
Our lives are changing lanes, you ran me off the road,
  F#m    G  A     G   A     F#m    Bm
The wait is over, I'm now taking over,
  F#m     G     A          G   A    G    F#m          Bm
You're no longer laughing, I'm not drowning fast enough




(end)
Добавлено: 24.05.2016
Другие материалы по этой песне:
  • Аккорды и текст

Страница создана 24.05.2016
http://primanota.ru/punch-brothers/reptilia-chords.htm
Привет, Гость.
Предлагаем пройти революционный курс по гитаре.
Подарок от PrimaNota.Ru, забирай!