PrimaNota.ru - самый крупный в мире бесплатный архив песенных текстов, аккордов, табулатур и нот


Pump N Ethyl - Guns For Nuns - аккорды и текст, видео

Регистрация Запомнить меня
Войти через:  Facebook Google Twitter Vk Yandex Mail.ru

Pump N Ethyl - Guns For Nuns - аккорды и текст, видео

Печатать
Просмотров: 81
Guns For Nuns
Pump N Ethyl
Artist :Pump'N Ethyl
Song   :Guns For Nuns
Tab By :Arin Crandell

this probably isn't exact, i'm not to good at transcribing songs.
but it sounds fine

e-----------------------------------------------
B-----------------------------------------------
G--------5------------7---------9--------9------
D--9-----5---5-----7--7-7---xxx-9--9-xxx-9--9---
A--9-----3---5-----7--5-7---xxx-7--9-xxx-7--9---
E--7---------3-----5----5---xxx----7-xxx----7---
  guns  for nuns...

e-------------------------------
B-------------------------------
G----xxxxxx--9--7--xxxxxx---9---
D--9-xxxxxx--9--7--xxxxxx---9---
A--9-xxxxxx--7--5--xxxxxx---7---
E--7-xxxxxx--------xxxxxx-------
got my SKS rifle, my snub nosed 38...

the number if rhythm clicks isn't exact,
just through a bunch in there who cares its punk

for the end just repeat this
e------------
B------------
G-9----------
D-9--9--999--
A-7--9--999--
E----7--777--

_________________________________________________________________
     
Добавлено: 21.11.2013
Другие материалы по этой песне:
  • Аккорды и текст

Страница создана 02.11.2013
http://primanota.ru/pump-n-ethyl/guns-for-nuns-chords.htm
Привет, Гость.
Предлагаем пройти революционный курс по гитаре.
Подарок от PrimaNota.Ru, забирай!