PrimaNota.ru - самый крупный в мире бесплатный архив песенных текстов, аккордов, табулатур и нот


Puller - Nothing To Prove - таба, видео

Регистрация Запомнить меня
Войти через:  Facebook Google Twitter Vk Yandex Mail.ru

Puller - Nothing To Prove - таба, видео

Печатать
Просмотров: 63
Уроки эстрадного вокала в Санкт-Петербурге
		   Nothing to Prove by Puller

	Dropped D tuning

I'm not sure the chorus is right, but its close


	Intro/verse
e[------------------}
b[-----------------0}
g[--4-4-4-4/6-6h7-6-]   (xALOT)
d[--4-4-4-4/6-6-----]
a[-5-5-5-5/7-7------]
D[------------------]

__________________________

		Chorus

e[---------------------------}
b[---------------------------}
g[---------------------------}
d[0-1-0-3-3-3-3------4-5-5---} (x2)
a[x-x-x-1-1-1-1-1/5-5----3-3-}
D[x-x-x-1-1-1-1-1/5-5----3-3-}


	
	break

d[-7-9-5-3-7-3-5-5]
a[-5-7-3-1-5-1-3-3]
D[-5-7-3-1-5-1-3-3]

		bridge
	the count for this part is weird, listen to the CD for the 	rythym
e[------------]           
b[------------]      
g[------------]      
d[------------]  (x2) then d[-3-]
a[-0-0-0-0-0-0]            a[-3-]
D[0-0-6-6-5-5-]            D[-3-]
     
Добавлено: 17.07.2013
Вам также может быть интересно:
Другие материалы по этой песне:
  • Аккорды и текст

Страница создана 17.07.2013
http://primanota.ru/puller/nothing-to-prove-chords.htm
Привет, Гость.
Предлагаем пройти революционный курс по гитаре.
Подарок от PrimaNota.Ru, забирай!