PrimaNota.ru - самый крупный в мире бесплатный архив песенных текстов, аккордов, табулатур и нот


Pulled Apart By Horses - Wolf Hand - таба, видео

Регистрация Запомнить меня
Войти через:  Facebook Google Twitter Vk Yandex Mail.ru

Pulled Apart By Horses - Wolf Hand - таба, видео

Печатать
Просмотров: 77
Tabbed by JaaaayDeeee email:jdgilbert@ntlworld.com 

The Riff

E|------------------------------------------------------------|
B|------------------------------------------------------------|
G|------------------------------------------------------------|
D|------------------------------------------------------------|
A|--------4-4-1-1---------1-1-4-4--------4-4-1-1--------1--1h2|
D|-1-1-1-1--------4-4-4-4---------1-1-1-1-------4-4-4-4---4---|

E|------------------------------------------------|
B|------------------------------------------------|
G|------------------------------------------------|
D|------------------------------------------------|
A|--------4-4-1-1---------1-1-4-4--------4-4-1-1--|
D|-1-1-1-1--------4-4-4-4---------1-1-1-1-------4-|

Verse guitar repeats riff with palm mute while other guitar plays this:

E|------------------|-----------------|
B|--11-11-9-8hp9----|-11-11-9-8hp9--11|
G|--------------8---|-------------8---|
D|------------------|-----------------|
A|------------------|-----------------|
D|------------------|-----------------|

E|------------------|------------------9-11|
B|--11-11-9-8hp9----|-11-11-9-8hp9--11-----|
G|--------------8---|-------------8--------|
D|------------------|----------------------|
A|------------------|----------------------|
D|------------------|----------------------|

Pre chorus

E|------------------|
B|------------------|
G|------------------|
D|------------------|
A|---1-----1--------|
D|-4---4-3--2-------|

Chorus simply strum this chord throughout
E|------|
B|------|
G|------|
D|-1----|
A|-1----|
D|-1----|

verse again guitar repeats riff with pm and other one plays this

E|------------------|-----------------|
B|------------------|-----------------|
G|---11---11-8------|------11bu-------|
D|-8----8-----------|-8-8-------------| 
A|------------------|-----------------|
D|------------------|-----------------|

E|------------------|-----------------|
B|------------------|-----------------|
G|---11---11-8------|------11bu-------|
D|-8----8-----------|-8-8-------------| 
A|------------------|-----------------|
D|------------------|-----------------|

E|------------------|
B|------------------| x4
G|---11---11-8-11-8-|
D|-8----8-----------| 
A|------------------|
D|------------------|

Pre chorus again

Chorus slightly different
E|------------------|
B|------------------|
G|------------------|
D|-1-----/13--------| 
A|-1-----/13--------|
D|-1(x12)/13(x12)---|

back to this chord for rest of chorus 
E|------|
B|------|
G|------|
D|-1----|
A|-1----|
D|-1----|

other guitar plays this I'm not sure but I think every 2nd time there's a slide 

E|----------|
B|-11-10----|
G|------10-8|
D|----------|
A|----------|
D|----------|

then

E|--------------------------------|
B|--------------------------------|x3
G|--------------------------------|
D|--------------------------------|
A|--------------------------------|
D|-1-1-1-1-4-4-1-1-5-5-5-5-5-4-4-4|

"but it's ok"

E|--------------------------------|
B|--------------------------------|x8
G|--------------------------------|
D|--------------------------------|
A|-1-1-1-1-4-4-1-1-5-5-5-5-5-4-4-4|
D|-1-1-1-1-4-4-1-1-5-5-5-5-5-4-4-4|

repeat riff

then

E|------------------|
B|------------------|
G|------------------|
D|------------------|
A|---1-----1--1-----|
D|-4---4-3--2-1-----|

fin
Добавлено: 19.09.2013
Другие материалы по этой песне:
  • Аккорды и текст

Страница создана 19.09.2013
http://primanota.ru/pulled-apart-by-horses/wolf-hand-chords.htm
Привет, Гость.
Предлагаем пройти революционный курс по гитаре.
Подарок от PrimaNota.Ru, забирай!