PrimaNota.ru - самый крупный в мире бесплатный архив песенных текстов, аккордов, табулатур и нот


Pulled Apart By Horses - The Crapsons - таба, видео

Регистрация Запомнить меня
Войти через:  Facebook Google Twitter Vk Yandex Mail.ru

Pulled Apart By Horses - The Crapsons - таба, видео

Печатать
Просмотров: 104
Artist: Pulled Apart By Horses
  Song: The Crapsons

Tabbed By Dantallica

Tuning: D A D G B E

Legend

b  - bend
~  - vibrato
pb - prebend
r  - release bend
/\ - slides (self explanatory)
h  - hammer on
p  - pull off
PM - Palm Mute
g  - grace note
ph - pinch harmonic
tr - trill
=  - tremelo pick
.  - Stoccato/Palm Mute


Intro
|-----------------------------------------------------|
|-----------------------------------------------------|
|-----------------------------------------------------|
|-7/8-8--7/8-8--7/8-8--7/8-8--------------------------|
|-5/6-6--5/6-6--5/6-6--5/6-6--------------------------|
|-----------------------------------------------------|

Riff 1
|-------------------------------------|
|-------------------------------------|
|-------------------------------------|
|-7-7-7-5-5-5---------1p0-----1p0-----|
|-------------6-6-6-------3p0-----3p0-|
|-------------------------------------|

Riff 2
|-----------------------------|
|-----------------------------|
|-----------------------------|
|-----------------------------|
|---10-----10------6-----6----|
|-7----7-7-----7\3----33---3--|

Riff 3 
"And everytime..."
|---------------------------------------|--------|
|---------------------------------------|--------|
|---------------------------------------|--------|Let ring
|---------------------------------------|--------|before 
|-0-5-7--0-5-7--0-5-7--3h555-3h555------|-0~-----|breakdown
|-0-5-7--0-5-7--0-5-7-------------------|-0~-----|
  . . .  . . .  . . .  . ... . ...

Breakdown                              End
|-------------------------------------|-----------------------------------------|
|-------------------------------------|-----------------------------------------|
|-------------------------------------|-----------------------------------------|
|-------------------------------------|-----------------------------------------|
|-12-0--0--5-6-7-10-12-0--0-12h13-13--|-12h13-13-12h13-13-12h13-13-12h13-13-13\-|
|-12-0--0--5-6-7-10-12-0--0-12h13-13--|-12h13-13-12h13-13-12h13-13-12h13-13-13\-|
Добавлено: 13.05.2012
Другие материалы по этой песне:
  • Аккорды и текст

Страница создана 13.05.2012
http://primanota.ru/pulled-apart-by-horses/the-crapsons-chords.htm
Привет, Гость.
Предлагаем пройти революционный курс по гитаре.
Подарок от PrimaNota.Ru, забирай!