PrimaNota.ru - самый крупный в мире бесплатный архив песенных текстов, аккордов, табулатур и нот


Pulled Apart By Horses - Night Of The Living Im Scared Of People - таба, видео

Регистрация Запомнить меня
Войти через:  Facebook Google Twitter Vk Yandex Mail.ru

Pulled Apart By Horses - Night Of The Living Im Scared Of People - таба, видео

Печатать
Просмотров: 64
----------------------------------------------------------------------------
NIGHT OF THE LIVING (I'M SCARED OF PEOPLE)
By PULLED APART BY HORSES                       
From the album TOUGH LOVE (2012)
----------------------------------------------------------------------------
Tabbed by: redsnail

My first ever tab, please rate! No one else has tabbed this so I thought I'd 
give it a go, and it sounded fantastic live. Tab sounds perfect though some of 
the riffs may be played in a  different place on the fretboard. I don't have 
any videos or other tabs to go on so this is just by ear. Its arranged for 1
guitar so you can play along.

Tuning: D A D G B E (Drop D)

0:00
I've never been so scared in my whole life!...
e|--------------------------------------------------------------------------|
B|--------------------------------------------------------------------------|
G|-15-15--14-14--12-12--7-7--11-11-11-9-------------------------------------|
D|--------------------------------------------------------------------------|
A|-13-13--12-12--10-10--5-5--9--9--9--7-------------------------------------|
D|----------------------------------------7-9-12-9-12-9-7-9-7-9-12-9-7-9-12-| x8

0:46
e|-----------------------------------|
B|-----------------------------------|
G|-----------------------------------|
D|-7-9-12-9-12-9-7-9-7-9-12-9-7-9-12-|
A|-7-9-12-9-12-9-7-9-7-9-12-9-7-9-12-|
D|-7-9-12-9-12-9-7-9-7-9-12-9-7-9-12-| x2

0:51
e|--------------------------------------------------------------------------|
B|--------------------------------------------------------------------------|
G|--------------------------------------------------------------------------|
D|--------------------------------------------------------------------------|
A|--------------------------------------------------------------------------|
D|-12-12---12-12-12--12-12-12--12-12-12--12\9-9--9-9-9--9-9-9--9-9-9--9/----| x2

1:04
Night Of the living...
e|--------------------------------------------------------------------------|
B|---0-10/12\6---0-10/12\6---0-10/12\6---0-10/12\6--------------------------|
G|--------------------------------------------------------------------------|
D|--------------------------------------------------------------------------|
A|--------------------------------------------------------------------------|
D|--------------------------------------------------------------------------|

I'm Scared of People!...
e|------13--------13-------13-------13--------------------------------------|
B|-0-10------0-10-----0-10-----0-10-----------------------------------------|
G|--------------------------------------------------------------------------|
D|--------------------------------------------------------------------------|
A|--------------------------------------------------------------------------|
D|--------------------------------------------------------------------------|

Night Of the living...
e|--------------------------------------------------------------------------|
B|---0-10/12\6---0-10/12\6---0-10/12\6---0-10/12\6--------------------------|
G|--------------------------------------------------------------------------|
D|--------------------------------------------------------------------------|
A|--------------------------------------------------------------------------|
D|--------------------------------------------------------------------------|

Comeooonnnnnn!
e|--------------------------------------------------------------------------|
B|--------------------------------------------------------------------------|
G|--------------------------------------------------------------------------|
D|-9-9-9-9-9-9-9-7-9-7------------------------------------------------------|
A|-9-9-9-9-9-9-9-7-9-7------------------------------------------------------|
D|-9-9-9-9-9-9-9-7-9-7------------------------------------------------------|

Night Of the living...
e|--------------------------------------------------------------------------|
B|---0-10/12\6---0-10/12\6---0-10/12\6---0-10/12\6--------------------------|
G|--------------------------------------------------------------------------|
D|--------------------------------------------------------------------------|
A|--------------------------------------------------------------------------|
D|--------------------------------------------------------------------------|

I'm Scared of People!...
e|------13--------13-------13-------13--------------------------------------|
B|-0-10------0-10-----0-10-----0-10-----------------------------------------|
G|--------------------------------------------------------------------------|
D|--------------------------------------------------------------------------|
A|--------------------------------------------------------------------------|
D|--------------------------------------------------------------------------|

Night Of the living...
e|--------------------------------------------------------------------------|
B|---0-10/12\6---0-10/12\6---0-10/12\6---0-10/12\6--------------------------|
G|--------------------------------------------------------------------------|
D|--------------------------------------------------------------------------|
A|--------------------------------------------------------------------------|
D|--------------------------------------------------------------------------|

I'm Scared of People!...
e|------13--------13-------13-------13--------------------------------------|
B|-0-10------0-10-----0-10-----0-10-----------------------------------------|
G|--------------------------------------------------------------------------|
D|--------------------------------------------------------------------------|
A|--------------------------------------------------------------------------|
D|--------------------------------------------------------------------------|

And you never stop until your dead...
e|--------------------------------------------------------------------------|
B|-12-12-12-12-12-12-12-12--11-11-11-11-11-11-11-11-------------------------|
G|--------------------------------------------------------------------------|
D|--------------------------------------------------------------------------|
A|--------------------------------------------------------------------------|
D|--------------------------------------------------------------------------| x3

'Cause you feel an almost deadly bite(?!)
e|--------------------------------------------------------------------------|
B|--------------------------------------------------------------------------|
G|--------------------------------------------------------------------------|
D|-9-9-9-9-9-9-9-7-9-7-9----------------------------------------------------|
A|-9-9-9-9-9-9-9-7-9-7-9----------------------------------------------------|
D|-9-9-9-9-9-9-9-7-9-7-9----------------------------------------------------| x2

1:42
I've found the key to atlantis...
e|--------------------------------------------------------------------------|
B|--------------------------------------------------------------------------|
G|-10p9-7--------7h9p7------------------------------------------------------|
D|--------9~--7h9---------4-4-4-4-4-4-4/9-9-9-9-9-9-9-----------------------|
A|------------------------2-2-2-2-2-2-2/9-9-9-9-9-9-9-----------------------|
D|--------------------------------------9-9-9-9-9-9-9-----------------------|

e|--------------------------------------------------------------------------|
B|--------------------------------------------------------------------------|
G|-10p9-7--------7h9p7------------------------------------------------------|
D|--------9~--7h9----------7-9-12-9-12-9-7-9-7-9-12-9-7-9-12----------------|
A|-------------------------7-9-12-9-12-9-7-9-7-9-12-9-7-9-12----------------|
D|-------------------------7-9-12-9-12-9-7-9-7-9-12-9-7-9-12----------------| x4

2:17
e|--------------------------------------------------------------------------|
B|--------------------------------------------------------------------------|
G|--------------------------------------------------------------------------|
D|-9-9-9-9-9-9-9-7-9-7-9----------------------------------------------------|
A|-9-9-9-9-9-9-9-7-9-7-9----------------------------------------------------|
D|-9-9-9-9-9-9-9-7-9-7-9----------------------------------------------------|

2:22
e|-------------------------------12b(14)br12--------------------------------|
B|---------------------------------------------------------(long slow bends)|
G|--------------------9b(11)br9 -------------9b(11)br9----------------------|
D|----------------7---------------------------------------------------------|
A|------------7-9---9-------------------------------------------------------|
D|--------------------------------------------------------------------------|

Night of the living...
e|--------------------------------------------------------------------------|
B|--------------------------------------------------------------------------|
G|-10p9-7--------7h9p7------------------------------------------------------|
D|--------9~--7h9----------7-9-12-9-12-9-7-9-7-9-12-9-7-9-12----------------|
A|-------------------------7-9-12-9-12-9-7-9-7-9-12-9-7-9-12----------------|
D|-------------------------7-9-12-9-12-9-7-9-7-9-12-9-7-9-12----------------| x4

e|-----------------------------------|
B|-----------------------------------|
G|-----------------------------------|
D|-7-9-12-9-12-9-7-9-7-9-12-9-7-9-12-|
A|-7-9-12-9-12-9-7-9-7-9-12-9-7-9-12-|
D|-7-9-12-9-12-9-7-9-7-9-12-9-7-9-12-| x2

e|--------------------------------------------------------------------------|
B|--------------------------------------------------------------------------|
G|--------------------------------------------------------------------------|
D|-9-9-9-9-9-9-9-7-9-7-9---9---7---9---9------------------------------------|
A|-9-9-9-9-9-9-9-7-9-7-9---9---7---9---9------------------------------------|
D|-9-9-9-9-9-9-9-7-9-7-9---9---7---9---9------------------------------------|

Lyrics:
I've never been so scared in my whole life!
Instead of punches, (?)... High Five!
You try to pull you try to push
You try to pull but every time you do you fall!
(?)...
You try to lose everything that you take
Read my mind let's work together!
You can take my (?) alive but we'll kill each other

Night of the living, I'm scared of people!
Night of the living, comeooonnnn!
Night of the living, I'm scared of people!
Night of the living, I'm scared of people!
You'll never stop until you're dead, it's like the adults always said, 
you never leave your house at night, cause you (?) almost deadly bite!

I've found the key to atlantis, but there's no one here!
I've re-erected the temple, but I had no key!
I've climbed a thousand mountains, but always lost my way!
And now it's night of the living - it's judgement day.

Night of the living
Night of the living

Night of the living
Night of the living
You'll never stop until you're dead, it's like the adults always said, 
you never leave your house at night, cause you (?) almost deadly bite!

************************************

| /   slide up
| \   slide down
| h   hammer-on
| p   pull-off
| ~   vibrato
| +   harmonic
| x   Mute note
| b   Bend
| pb  Pre-bend
| br  Bend release
| pbr Pre-bend release
| brb Bend release bend

************************************

Please rate if you enjoyed this tab!
Добавлено: 16.08.2013
Другие материалы по этой песне:
  • Аккорды и текст

Страница создана 16.08.2013
http://primanota.ru/pulled-apart-by-horses/night-of-the-living-im-scared-of-people-chords.htm
Привет, Гость.
Предлагаем пройти революционный курс по гитаре.
Подарок от PrimaNota.Ru, забирай!