PrimaNota.ru - самый крупный в мире бесплатный архив песенных текстов, аккордов, табулатур и нот


Pulled Apart By Horses - Degeneration Game - таба, видео

Регистрация Запомнить меня
Войти через:  Facebook Google Twitter Vk Yandex Mail.ru

Pulled Apart By Horses - Degeneration Game - таба, видео

Печатать
Просмотров: 74
Уроки эстрадного вокала в Санкт-Петербурге
----------------------------------------------------------------------------
                            Degeneration Game - Pulled Apart By Horses
----------------------------------------------------------------------------
Tabbed by:JaaaayDeeee
E-mail:jdgilbert@ntlworld.com

Tuning: Drop D 



e|-----------------------------------------------------------------------|
B|-----------------------------------------------------------------------|
G|-----------------------------------------------------------------------|
D|-0-0-0-0-1-1-1-1-2-2-2-2-3-3-3-3-4-4-4-4-5-5-5-5-6-6-6-6-7-7-7-7-------|
A|-0-0-0-0-1-1-1-1-2-2-2-2-3-3-3-3-4-4-4-4-5-5-5-5-6-6-6-6-7-7-7-7-------|
D|-0-0-0-0-1-1-1-1-2-2-2-2-3-3-3-3-4-4-4-4-5-5-5-5-6-6-6-6-7-7-7-7-------|

e|-----------------------------|   |-----------------------------|
B|-----------------------------|   |-----------------------------|
G|-----------------------------|   |-----------------------------|
D|-2-2-0-2-3-2-0-2-2-0-2-0---0-|x3 |-2-2-0-2-3-2-0-2-------0-----|
A|-------------------------2---|   |-----------------0-1-2---7\--|
D|-----------------------------|   |-----------------------------|


verse

e|5+---|------------------------------------------------------------------|
B|5+---|------------------------------------------------------------------|
G|5+---|------------------------------------------------------------------|
D|-----|-2-------0-2-2-0-2-3-2-0-2-2-0-2-0---0-2-2-0-2-3-2-0-2-2-0-2-0---0|
A|---7\|---0-1-2---------------------------2---------------------------2--|
D|-----|------------------------------------------------------------------|

e|------------------------------------------------------------------------|
B|------------------------------------------------------------------------|
G|------------------------------------------------------------------------|
D|2-2-0-2-3-2-0-2-2-0-2-0---0-2-2-0-2-3-2-0-2-------0-2-------0-2---------|
A|------------------------2-------------------0-1-2-----0-1-2-----0-1-2-0-|
D|------------------------------------------------------------------------|

e|------------------|
B|------------------|
G|--4-4-4-4-4-4-4-4-|
D|--4-4-4-4-4-4-4-4-| x4
A|--2-2-2-2-2-2-2-2-|
D|------------------|
 
e|---------------------------------------------------------|
B|---------------------------------------------------------|
G|-9-----------9-------------------------------------------|
D|-9-0-5-6-7-0-9-0-5-6-7-0-8-8-8-8-8-8-8-8-8-7-7-7-7-5-5-5-| x4
A|-7-0-5-6-7-0-7-0-5-6-7-0-8-8-8-8-8-8-8-8-8-7-7-7-7-5-5-5-|
D|---0-5-6-7-0---0-5-6-7-0-8-8-8-8-8-8-8-8-8-7-7-7-7-5-5-5-|

e|------------------|
B|------------------|
G|--4-4-4-4-4-4-4-4-|
D|--4-4-4-4-4-4-4-4-| x4
A|--2-2-2-2-2-2-2-2-|
D|------------------|
    pm

e|----------------------------------------------------------|
B|----------------------------------------------------------|
G|--------------------------------------------------------4-|
D|----------------------------------------------------------| x3
A|----------------------------------------------------------|
D|-2-2-0-2-3-2-0--2-2-0-2-3-2-0--2-2-0-2-3-2-0--2-2-0-2-0---|

e|------------------------------------------------------------------|
B|------------------------------------------------------------------|
G|------------------------------------------------------------------|
D|------------------------------------------------------------------| 
A|----------------------------------------------2-------0-2---------|
D|-2-2-0-2-3-2-0--2-2-0-2-3-2-0--2-2-0-2-3-2-0----0-1-2-----0-1-2-0-|

e|---------------------------------------------------------|
B|---------------------------------------------------------|
G|-9-----------9-------------------------------------------|
D|-9-0-5-6-7-0-9-0-5-6-7-0-8-8-8-8-8-8-8-8-8-7-7-7-7-5-5-5-| x4
A|-7-0-5-6-7-0-7-0-5-6-7-0-8-8-8-8-8-8-8-8-8-7-7-7-7-5-5-5-|
D|---0-5-6-7-0---0-5-6-7-0-8-8-8-8-8-8-8-8-8-7-7-7-7-5-5-5-|


e|----------------------------------|
B|----------------------------------|
G|-------------------------------9\-|
D|-------------------------------9\-|
A|-2-------0-2-------0-2-------0-7\-|
D|---0-1-2-----0-1-2-----0-1-2------|
Добавлено: 31.12.2013
Другие материалы по этой песне:
  • Аккорды и текст

Страница создана 31.12.2013
http://primanota.ru/pulled-apart-by-horses/degeneration-game-chords.htm
Привет, Гость.
Предлагаем пройти революционный курс по гитаре.
Подарок от PrimaNota.Ru, забирай!