PrimaNota.ru - самый крупный в мире бесплатный архив песенных текстов, аккордов, табулатур и нот


Puffy Amiyumi - Teen Titans Go Ending Theme - таба, видео

Регистрация Запомнить меня
Войти через:  Facebook Google Twitter Vk Yandex Mail.ru

Puffy Amiyumi - Teen Titans Go Ending Theme - таба, видео

Печатать
Просмотров: 136
-------------------------------------------------------------------------------
                             Teen Titans Go Ending Theme - Puffy Amiyumi
-------------------------------------------------------------------------------
Tabbed by: Richard Gustafsson


Tuning: Standard (E,A,D,G,B,e)

Intro riff (guitar / power chords):

Play the chords according to the song

Repeat x3
e|---------------------------------------------------------------------------|
B|---------------------------------------------------------------------------|
G|---------------------------------------------------------------------------|
D|----9----------------------------------------------------------------------|
A|-9--7--9-------------------------------------------------------------------|
E|-7-----7-------------------------------------------------------------------|

Bass Riff (can be played on guitar):

e|---------------------------------------------------------------------------|
B|---------------------------------------------------------------------------|
G|---------------------------------------------------------------------------|
D|---------------------------------------------------------------------------|
A|---------------------------------------------------------------------------|
E|-7-7-7-7-7s5s2-5-7-7-------------------------------------------------------|

Second guitar riff (power chords):

Played for the rest of the song on one guitar

e|---------------------------------------------------------------------------|
B|---------------------------------------------------------------------------|
G|---------------------------------------------------------------------------|
D|----9-----9---------4------------------------------------------------------|
A|-9--7--9--7--9s--4--2------------------------------------------------------|
E|-7-----7-----7s--2---------------------------------------------------------|

Harmony riff / melody (second guitar):

Played 3 times starting from when the second guitar riff starts

      C      A      F      C
               
e|------4--------------------4-----------------------------------------------|
B|----5--------4------2----5-------------------------------------------------|
G|--4--------4------3----4---------------------------------------------------|
D|---------4------4----------------------------------------------------------|
A|---------------------------------------------------------------------------|
E|---------------------------------------------------------------------------|


Thanks for reading this tab, and if it was good, don't forget to leave a rating :)


************************************

| /   slide up
| \   slide down
| h   hammer-on
| p   pull-off
| ~   vibrato
| +   harmonic
| x   Mute note
| b   Bend
| pb  Pre-bend
| br  Bend release
| pbr Pre-bend release
| brb Bend release bend

************************************
Добавлено: 17.05.2015
Другие материалы по этой песне:
  • Аккорды и текст

Страница создана 17.05.2015
http://primanota.ru/puffy-amiyumi/teen-titans-go-ending-theme-chords.htm
Привет, Гость.
Предлагаем пройти революционный курс по гитаре.
Подарок от PrimaNota.Ru, забирай!