PrimaNota.ru - самый крупный в мире бесплатный архив песенных текстов, аккордов, табулатур и нот


Puffy Amiyumi - Joining A Fan Club - текст песни, таба, видео

Регистрация Запомнить меня
Войти через:  Facebook Google Twitter Vk Yandex Mail.ru

Puffy Amiyumi - Joining A Fan Club - текст песни, таба, видео

Печатать
Просмотров: 168
Song:  Joining a Fan Club
Artist:  Puffy AmiYumi

Tuning:  Standard

Key:    /                - Slide Up
	M(before number) – Palm Mute
	B(after number)  - Bend
	~(“)		 - Vibrato
	p(after number)  - Pull off

Intro.

E---------------------------------------------------------------------|
B---------------------------------------------------------------------|
G---------------------------------------------------------------------|
D---------------------------------------------------------------------|
A-------/7---------7---6---5---3--------------------------------------|
E--------------------------------------5----7-------------------------|

Riff 1

----------------------------------------------------------------------|
----------------------------------------------------------------------|
----------------------------------------------------------------------|
--------------------------------------------------------------4-------|
------7---------7-------7-------7-------7----------7-------7-----7----|
-m0------m7-m7------m6------m5------m0------m7-m7------m6-------------|


----------------------------------------------------------------------|
----------------------------------------------------------------------|
---------------------------------------------------------4----7-------|
---------------------------------------------------------4----7-------|
------7---------7-------7-------7-------7----------7-----2----5-------|
-m0------m7-m7------m6------m5------m0------m7-m7---------------------|

Verse 1 (Lyrics Start) Play 2x

----------------------------------------------------------------------|
----------------------------------------------------------------------|
----------------------------------------------------------------------|
--------------------------------------------------------------4-------|
------7---------7-------7-------7-------7----------7-------7-----7----|
-m0------m7-m7------m6------m5------m0------m7-m7------m6-------------|


----------------------------------------------------------------------|
----------------------------------------------------------------------|
---------------------------------------------------------4----7-------|
------7---------7-------7-------7------------------------4----7-------|
-m0------m5-m5------m6------m7----------7----------7-----2----5-------|
------------------------------------m0------m7-m7---------------------|

End the first verse with the B chord shown above.

Chorus

-----------------------------------------------------------------------|
-----------------------------------------------------------------------|
------------2---2----------2-----5---5---------------------------------|
--2---2-----2---2----------2-----5---5-----5---5----------5------------|
--2---2-----0---0---m0-m0--0-----3---3-----5---5----------5------------|
--0---0------------------------------------3---3---m3-m3--3------------|

-----------------------------------------------------------------------|
-----------------------------------------------------------------------|
------------2---2----------2-------------------------------------------|
--2---2-----2---2----------2-------10-10--9--9----7---5----------------|
--2---2-----0---0---m0-m0--0-------8--8---7--7----5---3----------------|
--0---0----------------------------------------------------------------|

-----------------------------------------------------------------------|
-----------------------------------------------------------------------|
-------------5----5-------5-----------2---------5--5---4--4------------|
--4---4--4---5----5-------5---5---5---2---------5--5---4--4---7---5----|
--4---4--4---3—m3-3—m3-m3-3---5---5---0---------3--3---2--2---7---5----|
--2---2--2--------------------3---3---------------------------5---3----|

----------|
----------|
----------|
----4-----|
----4-----|
----2-----|

Riff 1 Again (w/ slight change at the end and two guitars)

Gtr 1
----------------------------------------------------------------------|
----------------------------------------------------------------------|
----------------------------------------------------------------------|
--------------------------------------------------------------4-------|
------7---------7-------7-------7-------7----------7-------7-----7----|
-m0------m7-m7------m6------m5------m0------m7-m7------m6-------------|

Gtr 2
----4------4------4------4------5------5------5------5----------------|
----5------5------5------5------5------5------5------5----------------|
----------------------------------------------------------------------|
----------------------------------------------------------------------|
----------------------------------------------------------------------|
----------------------------------------------------------------------|

Gtr 1
----------------------------------------------------------------------|
----------------------------------------------------------------------|
---------------------------------------------------------4----4-------|
------7---------7-------7-------7------------------------4----4-------|
-m0------m5-m5------m6------m7----------7----------7-----2----2-------|
------------------------------------m0------m7-m7---------------------|

Gtr 2
----4------4------4------4------5------5------5------5----------------|
----5------5------5------5------5------5------5------5----------------|
----------------------------------------------------------------------|
----------------------------------------------------------------------|
----------------------------------------------------------------------|
----------------------------------------------------------------------|


Verse 2 (Two guitars this time)

Gtr 1
----------------------------------------------------------------------|
----------------------------------------------------------------------|
----------------------------------------------------------------------|
--------------------------------------------------------------4-------|
------7---------7-------7-------7-------7----------7-------7-----7----|
-m0------m7-m7------m6------m5------m0------m7-m7------m6-------------|

Gtr 2
----4------4------4------4------5------5------5------5----------------|
----5------5------5------5------5------5------5------5----------------|
----------------------------------------------------------------------|
----------------------------------------------------------------------|
----------------------------------------------------------------------|
----------------------------------------------------------------------|


Gtr1
----------------------------------------------------------------------|
----------------------------------------------------------------------|
----------------------------------------------------------------------|
------7---------7-------7-------7-------------------------------------|
-m0------m5-m5------m6------m7----------7----------7------------------|
------------------------------------m0------m7-m7---------------------|


Gtr 2
----2------2------2------2------4------4------4------4----------------|
----3------3------3------3------5------5------5------5----------------|
----------------------------------------------------------------------|
----------------------------------------------------------------------|
----------------------------------------------------------------------|
----------------------------------------------------------------------|

Last note does not ring at the end of this verse.

Chorus (Play 2x)

Bridge (Play 2x before vocals join)

-------------------------------------------|
-------------------------------------------|
-------------------------------------------|
-------------------------------------------|
-----------3---5b--3--------3-------3------|
-~1----/5----------------5-------5---------|


------------------------------------------------------|
------------------------------------------------------|
------------------------------------------------------|
-----------5---7b--5--7--5------5---------------------|
-~3----/7-------------------7-------7---5---3---------|
------------------------------------------------------|

(Vocals Join)
-------------------------------------------|
-------------------------------------------|
-------------------------------------------|
-------------------------------------------|
-----------3---5b--3--------3-------3------|
-~1----/5----------------5-------5---------|

------------------------------------------------------|
------------------------------------------------------|
------------------------------------------------------|
-----------5---7b--5--7--5------5---------------------|
-~3----/7-------------------7-------7---5---3---------|
------------------------------------------------------|

------------------------------------------|
------------------------------------------|
------------------------------------------|
------------------------------------------|
-----------3---5b--3--------3-------3-----|
-~1----/5----------------5-------5--------|

------------------------------------------------------------------|
------------------------------------------------------------------|
------------------------------------------------------------------|
------------------------------------------------------------------|
------------------------------8-------7-------5-------3-------2---|
--~3-----5b-----~3--------m6------m5------m3------m1------m0------|

Bridge 2 (Play 2x)

----------------------------------------------------------------------|
----------------------------------------------------------------------|
---2--2---2--2--2---2--2---------------------------5--5---5--5--5-----|
---2--2---2--2--2---2--2---3--3---3--3--3---3--3---5--5---5--5--5-----|
---0--0---0--0--0---0--0---3--3---3--3--3---3--3---3--3---3--3--3-----|
---------------------------1--1---1--1--1---1--1----------------------|


-------------------------------------|
-------------------------------------|
--5--5---5--5--5---5---4---4---------|
--5--5---5--5--5---5---4---4---------|
--3--3---3--3--3---3---2---2---------|
-------------------------------------|

Break (just before the solo)

------------------------------------------------------------|
------------------------------------------------------------|
------------------------------------------------------------|
-----------5p--3-------3-----------------5p--3-------3------|
-------------------3-------3---------------------3-------3--|
--3---/7-----------------------3---/7-----------------------|

Solo (Bridge 2 is the rhythm guitar in the background)

----------------5---------5---------5---------5-----------------------|
---5--5------5---------5---------5---------5-----8b--8--5-------------|
---7b-7b—7b--------7b--------7b--------7b------------------7b--5------|
------------------------------------------------------------------7---|
----------------------------------------------------------------------|
----------------------------------------------------------------------|

----------5—8b—8p--5--------------------------------------------------|
-------5--------------5-----------------------------------------------|
---7b--------------------7--5-----5—5b—5b—5b5b5b5b5b5b-5b—5b—5b-------|
-------------------------------7--------------------------------------|
----------------------------------------------------------------------|
----------------------------------------------------------------------|

---13-13-13-13-12-12-12-12-10-10-10-10-8-8-8--------------------------|
---13-13-13-13-12-12-12-12-10-10-10-10-8-8-8--------------------------|
----------------------------------------------------------------------|
----------------------------------------------------------------------|
----------------------------------------------------------------------|
----------------------------------------------------------------------|

---15--15--15--15--15--15------15------15--15—-15\--------------------|
---18b-18b-18b-----18b-----18b-----18b-----18b-18b\-------------------|
----------------------------------------------------------------------|
----------------------------------------------------------------------|
----------------------------------------------------------------------|
----------------------------------------------------------------------|

Ending Chorus
-----------------------------------------------------------------------|
-----------------------------------------------------------------------|
------------3---3----------3-----6---6---------------------------------|
--3---3-----3---3----------3-----6---6-----6---6----------6------------|
--3---3-----1---1---m1-m1--1-----4---4-----6---6----------6------------|
--1---1------------------------------------4---4---m4-m4--4------------|

-----------------------------------------------------------------------|
-----------------------------------------------------------------------|
------------3---3----------3-------------------------------------------|
--3---3-----3---3----------3-------11-11--10-10---8---6----------------|
--3---3-----1---1---m1-m1--1-------9--9---8--8----6---4----------------|
--1---1----------------------------------------------------------------|

-----------------------------------------------------------------------|
-----------------------------------------------------------------------|
-------------6----6-------6-----------3---------6--6---5--5------------|
--5---5--5---6----6-------6---6---6---3---------6--6---5--5---8---6----|
--5---5--5---4—m4-4—m4-m4-4---6---6---1---------4--4---3--3---8---6----|
--3---3--3--------------------4---4---------------------------6---4----|

-----------|
-----------|
-----------|
----6------|
----6------|
----4------|

Outro

---------------------------|
---------------------------|
---------------------------|
---2—---3----4----5----6---|
---2----3----4----5----6---|
---0----1----2----3----4---|

And let the last note ring and that's that.

I'm not 100% on everything, but I did my best to sound it out.  I posted a
video demonstration on youtube if it helps.  Search “Joining a Fan Club Guitar” and
my video is under the screen name “j4rocker”.
Добавлено: 25.02.2012
Другие материалы по этой песне:
  • Аккорды и текст

Страница создана 25.02.2012
http://primanota.ru/puffy-amiyumi/joining-a-fan-club-chords.htm
Привет, Гость.
Предлагаем пройти революционный курс по гитаре.
Подарок от PrimaNota.Ru, забирай!