PrimaNota.ru - самый крупный в мире бесплатный архив песенных текстов, аккордов, табулатур и нот


Puddle Of Mudd - She Fuckin Hates Me - текст песни, таба, видео

Регистрация Запомнить меня
Войти через:  Facebook Google Twitter Vk Yandex Mail.ru

Puddle Of Mudd - She Fuckin Hates Me - текст песни, таба, видео

Печатать
Просмотров: 203
Puddle of Mudd

She Fuckin Hates Me

 

Tuning: Down a half step Eb Ab Db Gb Bb Eb (low to high)

 

H = Hammer On

P = Pull Off   

^w= Bend whole step

^(x/x)= Bend to that step  ex: 5^(1/4) Bend 5th fret ¼ step

^ = Bend Half Step

~ = Vibrato

 

 

Intro/Verse:

   F       Bb5      G      C5

E:-------------------------------------------------------------|

B:-------------------------------------------------------------|

G:----2-------3-------4---------5------------------------------|

D:----3-------3-------5---------5------------------------------|

A:-------0-1-----0--5----0-3--3----0---------------------------|

E:-1----------------3------------------------------------------|

      Met a girl^Å

      Fell in love^Å

 

Pre-Chorus

E:-------------------------------------------------------------|

B:-------------------------------------------------------------|

G:--5h7p5~~--5h7p5~~--5h7p5~~-5h7p5~~--7~---------7-5----------|

D:----------------------------------------------------7-5------|

A:-------------------------------------------------------------|

E:-------------------------------------------------------------|

 

Chorus

E:-------------------------------------------------------------|

B:-------------------------------------------------------------|

G:----2----3--3--------------5-----5---------------------------|

D:----3----3--3--------5-----5-----5---------------------------|

A:-3--3-0--1--1-0---5--5--0--3--3--3--0------------------------|

E:-1--1-0-------0---3--3--0------------------------------------|

   Hates

 

Verse 2:

E:-------------------------------------------------------------|

B:-------------------------------------------------------------|

G:---------3-3-3-3-------5--5-5-5------------------------------|

D:-3-3-3-3-3-3-3-3-5-5-5-5--5-5-5-0----------------------------|

A:-3-3-3-3-1-1-1-1-5-5-5-3--3-3-3-0----------------------------|

E:-1-1-1-1---------3-3-3---------------------------------------|

 

 2nd Pre-chorus

E:-------------------------------------------------------------|

B:-------------------------------------------------------------|

G:---------3-3-3---------5-5-5-5-------------------------------|

D:-3-3-3---3-3-3---5-5-5-5-5-5-5-------------------------------|

A:-3-3-3-0-1-1-1-0-5-5-5-3-3-3-3-0-----------------------------|

E:-1-1-1-0-------0-3-3-3---------0-----------------------------|

 

Solo:

E:----------------------------------------------------------------|

B:----------3-3-3-3^---3---5-5^w^×5~~~~----------------------------|

G:--3-3-3-3----------5---5----------------------3^×3^w-3-3^(1/4)---|

D:--------------------------------------3-3-3-3-------------------|

A:----------------------------------------------------------------|

E:----------------------------------------------------------------|

 

(cont)

E:--------------------------------------------------------------|

B:--------------------------------------------------------------|  

G:-3^-3^-3^--5~~~5--5-------------------------------------------|  

D:--------------------------------------------------------------|  

A:----------------------------------1-^×1--1--1^----1^---3-3-3-0-|  

E:---------------------1-^×1-^×1--1----------------3----3---------|  

 

E:-------------------------------------------------------------|

B:-------------------------------------------------------------|

G:---------3-3-3-3^---3---5-5^-5^w-5^w-r5----------------------|

D:-3-3-3-3----------5---5--------------------------------------|

A:-------------------------------------------------------------|

E:-------------------------------------------------------------|

 

That^Òs it for now, I will finish it later, jus add parts and it

Will sound good. :-) RJW
     
Добавлено: 03.08.2013
Другие материалы по этой песне:
  • Аккорды и текст

Страница создана 03.08.2013
http://primanota.ru/puddle-of-mudd/she-fuckin-hates-me-chords.htm
Привет, Гость.
Предлагаем пройти революционный курс по гитаре.
Подарок от PrimaNota.Ru, забирай!