PrimaNota.ru - самый крупный в мире бесплатный архив песенных текстов, аккордов, табулатур и нот


Puddle Of Mudd - Abrasive - текст песни, таба, видео

Регистрация Запомнить меня
Войти через:  Facebook Google Twitter Vk Yandex Mail.ru

Puddle Of Mudd - Abrasive - текст песни, таба, видео

Печатать
Просмотров: 130
Band= Puddle Of Mudd
Song- Abrasive

Tuning-Drop D (D A D G B e)

Intro (part 1)-Clean until the last set of 4\'s (which are distorted)
e------------------------------------------------------------|
B------------------------------------------------------------|
G------------------------------------------------------------|bend up gradually
D---4-4-4p2-2-2-4-4-4/8-8-8-4-4-4p2-2-2-4--44444444----------|
A------------------------------------------------------------|
D------------------------------------------------------------|

Intro (part 2)/Verse-Distorted
e---------------------------------------------------------------|
B---------------------------------------------------------------|
G---------------------------------------------------------------|
D--5-5-0-6-3-3-0------------------------------------------------|
A--5-5-0-6-3-3-0---repeat as necessary--------------------------|
D--5-5-0-6-3-3-0------------------------------------------------|

Chorus-Distorted
e---------------------------------------------------------|
B---------------------------------------------------------|
G--5--5--5--5--5--5--6--6--6------------------------------|
D--5--5--5--5--5--6--6--6--6--5-5-3-3-3-3-5-5-------------|
A--3--3--3--3--3--4--4--4--4--5-5-3-3-3-3-5-5-------------|
D-----------------------------5-5-3-3-3-3-5-5-------------|

Bridge-Clean (Power Chords distorted)
e---------------------------------------------------------------|
B--2-2-2-----(repeated)-----------------------------------------|
G---------0-----------------------------------------------------|
D--------------------------------6--6--6--6--6-6-6-6-5-5-5-5-0--|
A--------------------------------6--6--6--6--6-6-6-6-5-5-5-5-0--|
D--------------------------------4--4--4--4--6-6-6-6-5-5-5-5-0--|

Solo-Distorted
e---------------------------------------------------------------|
B---------------------------------------------------------------|
G-----------------------------------------------------4-4-------|
D-5p4-4-5p4-4-5p4-4-4-2-2-2-5p4-4-5p4-4-5p4-4-5p4-4-4-----------|
A---------------------------------------------------------------|
D---------------------------------------------------------------|
Добавлено: 26.09.2013
Другие материалы по этой песне:
  • Аккорды и текст

Страница создана 22.02.2012
http://primanota.ru/puddle-of-mudd/abrasive-chords.htm
Привет, Гость.
Предлагаем пройти революционный курс по гитаре.
Подарок от PrimaNota.Ru, забирай!