PrimaNota.ru - самый крупный в мире бесплатный архив песенных текстов, аккордов, табулатур и нот


Pucket Gary - Young Girl - бас-таба, видео

Регистрация Запомнить меня
Войти через:  Facebook Google Twitter Vk Yandex Mail.ru

Pucket Gary - Young Girl - бас-таба, видео

Печатать
Просмотров: 69
gary_pucket_young_girl.btab

Basstab by Jan Bjorklund, Finland  jani_bjorklund@yahoo.se>
You are welcome to request for basstabs!
Bienvenidos a pedirme transcripciones para el bajo!
Fingering and positions as suggested by TablEdit. 

TablEdited by Jan Bjorklund
Tuning : E A D G 	Time Signature:  4/4

 |       |       |       |       |        
|----------------------------------------|
|----------------------------------------|
|----------------------------------------|
|1---------------------------------------|

 |       |       |       |        |       |       |       |        
|--------------------------------|----------------------------0---|
|--------------------------------|----------------0-------0-------|
|--------------------------------|--------------------------------|
|4-----------4---4-----------4---|3-----------3-------3-----------|

 |       |       |       |        |       |       |       |        
|--------------------------------|--------------------------------|
|--------------------------------|--------------------------------|
|----------------3-------3-------|1-----------1---1-------1-------|
|1-----------1-------1-------1---|--------------------------------|

 |       |       |       |        |       |       |       |        
|--------------------------------|--------------------------------|
|--------------------------------|--------------------------------|
|4-----------4---2-----------2---|2-----------2---2-------2-------|
|--------------------------------|--------------------------------|

 |       |       |       |        |       |       |       |        
|------------------------3-------|------------------------1-------|
|1-----------1---1-----------1---|----------------------------1---|
|--------------------------------|--------------------------------|
|--------------------------------|4-----------4---4---------------|

 |       |       |       |        |       |       |       |        
|------------------------3-------|1-----------1---3-------1-------|
|1-----------1---1-----------1---|--------------------------------|
|--------------------------------|--------------------------------|
|--------------------------------|--------------------------------|

 |       |       |       |        |       |       |       |        
|------------------------3-------|--------------------------------|
|1-----------1---1-----------1---|------------------------1-------|
|--------------------------------|--------------------------------|
|--------------------------------|4-----------4---4-----------4---|

 |       |       |       |        |       |       |       |        
|------------------------3-------|1-----------1---3-------1-------|
|1-----------1---1-----------1---|--------------------------------|
|--------------------------------|--------------------------------|
|--------------------------------|--------------------------------|

 |       |       |       |        |       |       |       |        
|------------------------0-------|------------------------0-------|
|--------------------------------|--------------------------------|
|--------------------------------|--------------------------------|
|3-----------3---3---------------|3-----------3---3-----------3---|

 |       |       |       |        |       |       |       |        
|--------------------------------|--------------------------------|
|------------------------1-------|------------------------1-------|
|--------------------------------|--------------------------------|
|4-----------4---------------4---|4-----------4---4-----------4---|

 |       |       |       |        |       |       |       |        
|------------------------3-------|--------------------------------|
|1-----------1---1-----------1---|------------------------3-------|
|--------------------------------|1-----------1---1-----------1---|
|--------------------------------|--------------------------------|

 |       |       |       |        |       |       |       |        
|--------------------------------|--------------------------------|
|--------------------------------|1---1---1---1---1---1---1---1---|
|2-----------2---2-----------2---|--------------------------------|
|--------------------------------|--------------------------------|

 |       |       |       |        |       |       |       |        
|--------------------------------|--------------------0-----------|
|----------------1-------1-------|----------------0-------0-------|
|--------------------------------|--------------------------------|
|4-----------4-------4-------4---|3-----------3---------------3---|

 |       |       |       |        |       |       |       |        
|--------------------------------|----------------------------0---|
|--------------------------------|----------------0-------0-------|
|--------------------------------|--------------------------------|
|4-----------4---4-----------4---|3-----------3-------3-----------|

 |       |       |       |        |       |       |       |        
|--------------------------------|--------------------------------|
|--------------------------------|--------------------------------|
|----------------3-------3-------|1-----------1---1-------1-------|
|1-----------1-------1-------1---|--------------------------------|

 |       |       |       |        |       |       |       |        
|--------------------------------|--------------------------------|
|--------------------------------|--------------------------------|
|4-----------4---2-----------2---|2-----------2---2-------2-------|
|--------------------------------|--------------------------------|

 |       |       |       |        |       |       |       |        
|------------------------3-------|------------------------1-------|
|1-----------1---1-----------1---|----------------------------1---|
|--------------------------------|--------------------------------|
|--------------------------------|4-----------4---4---------------|

 |       |       |       |        |       |       |       |        
|------------------------3-------|1-----------1---3-------1-------|
|1-----------1---1-----------1---|--------------------------------|
|--------------------------------|--------------------------------|
|--------------------------------|--------------------------------|

 |       |       |       |        |       |       |       |        
|------------------------3-------|--------------------------------|
|1-----------1---1-----------1---|------------------------1-------|
|--------------------------------|--------------------------------|
|--------------------------------|4-----------4---4-----------4---|

 |       |       |       |        |       |       |       |        
|------------------------3-------|1-----------1---3-------1-------|
|1-----------1---1-----------1---|--------------------------------|
|--------------------------------|--------------------------------|
|--------------------------------|--------------------------------|

 |       |       |       |        |       |       |       |        
|------------------------0-------|------------------------0-------|
|--------------------------------|--------------------------------|
|--------------------------------|--------------------------------|
|3-----------3---3---------------|3-----------3---3-----------3---|

 |       |       |       |        |       |       |       |        
|--------------------------------|--------------------------------|
|------------------------1-------|------------------------1-------|
|--------------------------------|--------------------------------|
|4-----------4---------------4---|4-----------4---4-----------4---|

 |       |       |       |        |       |       |       |        
|------------------------3-------|--------------------------------|
|1-----------1---1-----------1---|------------------------3-------|
|--------------------------------|1-----------1---1-----------1---|
|--------------------------------|--------------------------------|

 |       |       |       |        |       |       |       |        
|--------------------------------|--------------------------------|
|--------------------------------|1---1---1---1---1---1---1---1---|
|2-----------2---2-----------2---|--------------------------------|
|--------------------------------|--------------------------------|

 |       |       |       |        |       |       |       |        
|--------------------------------|--------------------0-----------|
|----------------1-------1-------|----------------0-------0-------|
|--------------------------------|--------------------------------|
|4-----------4-------4-------4---|3-----------3---------------3---|

 |       |       |       |        |       |       |       |        
|--------------------------------|----------------------------0---|
|--------------------------------|----------------0-------0-------|
|--------------------------------|--------------------------------|
|4-----------4---4-----------4---|3-----------3-------3-----------|

 |       |       |       |        |       |       |       |        
|--------------------------------|--------------------------------|
|--------------------------------|--------------------------------|
|----------------3-------3-------|1-----------1---1-------1-------|
|1-----------1-------1-------1---|--------------------------------|

 |       |       |       |        |       |       |       |        
|--------------------------------|--------------------------------|
|--------------------------------|--------------------------------|
|4-----------4---2-----------2---|2-----------2---2-------2-------|
|--------------------------------|--------------------------------|

 |       |       |       |        |       |       |       |        
|------------------------3-------|------------------------1-------|
|1-----------1---1-----------1---|----------------------------1---|
|--------------------------------|--------------------------------|
|--------------------------------|4-----------4---4---------------|

 |       |       |       |        |       |       |       |        
|------------------------3-------|--------------------------------|
|1-----------1---1-----------1---|4-----------4---4---3---1-------|
|--------------------------------|--------------------------------|
|--------------------------------|--------------------------------|

 |       |       |       |        |       |       |       |        
|------------------------4-------|------------------------2-------|
|2-----------2---2-----------2---|----------------------------2---|
|--------------------------------|0-----------0---0---------------|
|--------------------------------|--------------------------------|

 |       |       |       |        |       |       |       |        
|------------------------4-------|2-----------2---4-------2-------|
|2-----------2---2-----------2---|--------------------------------|
|--------------------------------|--------------------------------|
|--------------------------------|--------------------------------|

 |       |       |       |        |       |       |       |        
|------------------------4-------|--------------------------------|
|2-----------2---2-----------2---|------------------------2-------|
|--------------------------------|0-----------0---0-----------0---|
|--------------------------------|--------------------------------|

 |       |       |       |        |       |       |       |        
|------------------------4-------|2-----------2---4-------2-------|
|2-----------2---2-----------2---|--------------------------------|
|--------------------------------|--------------------------------|
|--------------------------------|--------------------------------|

 |       |       |       |        |       |       |       |        
|------------------------1-------|------------------------1-------|
|--------------------------------|--------------------------------|
|--------------------------------|--------------------------------|
|4-----------4---4---------------|4-----------4---4-----------4---|

 |       |       |       |        |       |       |       |        
|--------------------------------|--------------------------------|
|------------------------2-------|------------------------2-------|
|0-----------0---------------0---|0-----------0---0-----------0---|
|--------------------------------|--------------------------------|

 |       |       |       |        |       |       |       |        
|------------------------4-------|--------------------------------|
|2-----------2---2-----------2---|------------------------4-------|
|--------------------------------|2-----------2---2-----------2---|
|--------------------------------|--------------------------------|

 |       |       |       |        |       |       |       |        
|--------------------------------|--------------------------------|
|--------------------------------|2---2---2---2---2---2---2---2---|
|3-----------3---3-----------3---|--------------------------------|
|--------------------------------|--------------------------------|

 |       |       |       |        |       |       |       |        
|--------------------------------|--------------------1-----------|
|----------------2-------2-------|----------------1-------1-------|
|0-----------0-------0-------0---|--------------------------------|
|--------------------------------|4-----------4---------------4---|

 |       |       |       |        |       |       |       |        
|--------------------------------|----------------------------1---|
|--------------------------------|----------------1-------1-------|
|0-----------0---0-----------0---|--------------------------------|
|--------------------------------|4-----------4-------4-----------|

 |       |       |       |        |       |       |       |        
|--------------------------------|--------------------------------|
|--------------------------------|--------------------------------|
|----------------4-------4-------|2-----------2---2-------2-------|
|2-----------2-------2-------2---|--------------------------------|

 |       |       |       |        |       |       |       |        
|--------------------------------|--------------------------------|
|0-----------0-------------------|--------------------------------|
|----------------3-----------3---|3-----------3---3-------3-------|
|--------------------------------|--------------------------------|

 |       |       |       |        |       |       |       |        
|--------------------------------|--------------------1-----------|
|----------------2-------2-------|----------------1-------1-------|
|0-----------0-------0-------0---|--------------------------------|
|--------------------------------|4-----------4---------------4---|

 |       |       |       |        |       |       |       |        
|--------------------------------|----------------------------1---|
|--------------------------------|----------------1-------1-------|
|0-----------0---0-----------0---|--------------------------------|
|--------------------------------|4-----------4-------4-----------|

 |       |       |       |        |       |       |       |        
|--------------------------------|--------------------------------|
|--------------------------------|--------------------------------|
|----------------4-------4-------|2-----------2---2-------2-------|
|2-----------2-------2-------2---|--------------------------------|

 |       |       |       |        |       |       |       |        
|--------------------------------|--------------------------------|
|0-----------0-------------------|--------------------------------|
|----------------3-----------3---|3-------------------------------|
|--------------------------------|--------------------------------|

 |       |       |       |        |       |       |       |        
|--------------------------------|--------------------------------|
|--------------------------------|--------------------------------|
|0-------------------------------|--------------------------------|
|--------------------------------|--------------------------------|




Created with TablEdit http://www.tabledit.com/

............................................................
     
Добавлено: 11.10.2013
Другие материалы по этой песне:
  • Аккорды и текст

Страница создана 11.10.2013
http://primanota.ru/pucket-gary/young-girl-chords.htm
Привет, Гость.
Предлагаем пройти революционный курс по гитаре.
Подарок от PrimaNota.Ru, забирай!