PrimaNota.ru - самый крупный в мире бесплатный архив песенных текстов, аккордов, табулатур и нот


Publik Domayne - Tangled Yoyo - таба, видео

Регистрация Запомнить меня
Войти через:  Facebook Google Twitter Vk Yandex Mail.ru

Publik Domayne - Tangled Yoyo - таба, видео

Печатать
Просмотров: 63
Song name: Tangled yo-yo
Artist: pubLik DomAyNe
Tabbed by: spYke	
E-mail: guitarmunkey05@yahoo.com


This song is in standard EADgbe tuning. 

This file is all my own work.  it is for your own private
use, and is not to be used in your own band, thanx :-D


                                                                       
 

(intro)

-----------------------------------------------------
-----------------------------------------------------
----0h4p0---0h4p0------0h4p0----0h4p0----------------   (2x)
------------------4-------------------4--5-5-5-5-----
-5--------5----------5--------5----------3-3-3-3-----
-3--------3----------3--------3----------------------


(pre-verse)

-------------
-------------
-----5--7----
-5---5--5----     (4x)
-5---3--5----
-3-----------


(verse)    (palm muted)

-------------
-------------
-----5--7----
-5---5--5----   (8x)
-5---3--5----
-3-----------


(chorus)

------------------------------------------
------------------------------------------
-----7--9--5----7--9--5--------5-----7--5-
--5--7--9--5--5-7--9--5--5--7--5--5--7--5-   
--5--5--7--3--5-5--7--3--5--7--3--5--5--3-
--3-----------3----------3--5-----3-------


(post chorus)

------------------------------
------------------------------
--------------5-------------7-
--5-x-5-x-5-x-5-5-x-5-x-5-x-7-   (2x)
--5-x-5-x-5-x-3-5-x-5-x-5-x-5-
--3-x-3-x-3-x---3-x-3-x-3-x---


(bridge part-1)

--------------------------------------------------------------   
-0-0-0-0-1-1-3-3----------------------------------------------  
--0-0-0-0-0-0-0-0-----------------(5)(5)--------(7)(7)-(5)(5)-  
----------------------------------(3)(3)--------(5)(5)-(3)(3)- 
--------------------(5)(5)-(7)(7)--------(5)(5)---------------
--------------------(3)(3)-(5)(5)--------(3)(3)---------------


notes in ()'s are
played in the background
of the non ()ed notes






(bridge part-2)

-----777h8h10p8p7-----555h6h8p6p5-----777h8h9p8p7-----555h6h8p6p5-
------------------------------------------------------------------
------------------------------------------------------------------ (2x)
--55--------------55--------------55---------------55-------------
--55--------------55--------------55---------------55-------------
--33--------------33--------------33---------------33-------------


(ending part-1)

----------------------------------------------------
----------------------------------------------------
--4p0-4p0-4p0-4p0-4p0----4p0-4p0-4p0-4p0-4p0--------
----------------------45---------------------40-----
----------------------------------------------------
----------------------------------------------------


(ending part-2)

---------------t15p10p7-(4X)---------------t15p10p7-(4x)-7////----
-t15p10p7-(4x)---------------t15p10p7-(4x)------------------------
------------------------------------------------------------------
------------------------------------------------------------------
------------------------------------------------------------------
------------------------------------------------------------------



song order:
intro
pre-verse
verse
chorus
post-chorus
verse
chorus
chorus
bridge
bridge part-2
pre-verse
chorus
chorus
post-chorus
ending part-1
ending part-2


good luck to all

\\m//  rock on!

     
Добавлено: 08.08.2013
Другие материалы по этой песне:
  • Аккорды и текст

Страница создана 08.08.2013
http://primanota.ru/publik-domayne/tangled-yoyo-chords.htm
Привет, Гость.
Предлагаем пройти революционный курс по гитаре.
Подарок от PrimaNota.Ru, забирай!