PrimaNota.ru - самый крупный в мире бесплатный архив песенных текстов, аккордов, табулатур и нот


Public Service Broadcasting - Go - бас-таба, видео

Регистрация Запомнить меня
Войти через:  Facebook Google Twitter Vk Yandex Mail.ru

Public Service Broadcasting - Go - бас-таба, видео

Печатать
Просмотров: 33
Авторы: J. Willgoose, Esq.

-------------------------------------------------------------------------------
                             Go! - Public Service Broadcasting
-------------------------------------------------------------------------------
Tabbed by: PsychoticLime, with special thanks to Martin Malenfant for helping out with the refrain section.
If you have any suggestions or questions you can email me at: dagostini.giacomo@gmail.com

Tuning: E-Standard (EADG)
Playing technique: pay attention to the rythm especially in the Bridge section.

(0:28) Bass intro
G|---------------------------------------------------------------------------------------------|
D|---------------------------------------------------------------------------------------------|
A|---------------------------------------------------------------------------------------------|
E|-6-6-6---6-6---6--6--6---6-6-6-6-6-6---6-6---6--6--6---4-4-4-2-2-2---2-2---2--2--2---2-2-2---|

G|--------------------------------|
D|--------------------------------|
A|--------------------------------| (x2)
E|-2-2-2---2-2---2--2--2---4-4-4--|

(0:49) Verse #1
G|-----------------------------------------------------------------------------------------------------------|
D|-----------------------------------------------------------------------------------------------------------|
A|-----------------------------------------------------------------------------------------------------------|
E|-6-6-6-6-6-6-6-6-6-6-6-6-6-6-6-6-6-6-6-6-6-6-6-6-6-6-6-6-6-4-4-4-2-2-2-2-2-2-2-2-2-2-2-2-2-2-2-2-2-2-2-2-2-|

G|-----------------------------------------------------------------------------------------------------------|
D|-----------------------------------------------------------------------------------------------------------|
A|------------------------------------------------------------------------------.--.-------------------------|
E|-2-2-2-2-2-2-2-4-4-4-6-6-6-6-6-6-6-6-6-6-6-6-6-6-6-6-6-6-6-6-6-6-6-6-6-6-6-6--4--2--2-2-2-2-2-2-2-2-2-2-2--|

G|-------------------------------------------|                   There's a slight ^
D|-------------------------------------------|                   difference here
A|-------------------------------------------|
E|-2-2-2-2-2-2-2-2-2-2-2-2-2-2-2-2-2-4-4-4-4-|

(1:12) Refrain
G|---------------------------------------------------------------------------------------------------------|
D|---------------------------------------------------------------------------------------------------------|
A|-6-6-6-6-6-6-6-6-6-6-6-6-4-4-4-4-6-6-6-6-6-6-6-6-6-6-6-6-6-6-8-8-8-8-9-9-9-9-9-9-9-9-9-9-9-9/11-11-11-11-|
E|---------------------------------------------------------------------------------------------------------|

G|------------------------------------|
D|------------------------------------|
A|-9-9-9-9-9-9-9-9---------8-8-8-8----|
E|-----------------9-9-9-9------------|

(1:23) Verse #2
G|-------------------------------------------------------------------------------------------------------------|
D|-------------------------------------------------------------------------------------------------------------|
A|------------------------------------------------------------.-.----------------------------------------------|
E|-6---(6)---------------------6--6---(6)---------------------4-4--4-2-2-2-2-2-2-2-2-2-2-2-2-2-2-2-2-2-2-2-2-2-|

G|-----------------------------------------------------------------------------------------------------------|
D|-----------------------------------------------------------------------------------------------------------|
A|-----------------------------------------------------------------------------------------------------------|
E|-2-2-2-2-2-2-2-4-4-4-6-6-6-6-6-6-6-6-6-6-6-6-6-6-6-6-6-6-6-6-6-6-6-6-6-6-6-6-4-4-4-4-2-2-2-2-2-2-2-2-2-2-2-|

G|---------------------------------------------------------------------------------------------------------|
D|---------------------------------------------------------------------------------------------------------|
A|---------------------------------------------------------------------------------------------------------|
E|-2-2-2-2-2-2-2-2-2-2-2-2-2-2-2-2-2-4-4-4-6-6-6-6-6-6-6-6-6-6-6-6-6-6-6-6-6-6-6-6-6-6-6-6-6-6-6-6-6-4-4-4-|

G|-----------------------------------------------------------------|
D|-----------------------------------------------------------------|
A|-----------------------------------------------------------------|
E|-2-2-2-2-2-2-2-2-2-2-2-2-2-2-2-2-2-2-2-2-2-2-2-2-2-2-2-2-4-4-4-4-|

(1:55) Refrain
G|---------------------------------------------------------------------------------------------------------|
D|---------------------------------------------------------------------------------------------------------|
A|-6-6-6-6-6-6-6-6-6-6-6-6-4-4-4-4-6-6-6-6-6-6-6-6-6-6-6-6-6-6-8-8-8-8-9-9-9-9-9-9-9-9-9-9-9-9/11-11-11-11-|
E|---------------------------------------------------------------------------------------------------------|

G|------------------------------------|
D|------------------------------------|
A|-9-9-9-9-9-9-9-9---------8-8-8-8----| (x2)
E|-----------------9-9-9-9------------|

(2:17) Build-up
G|---------------------------------------------------------------------------------------|
D|---------------------------------------------------------------------------------------|
A|---------------------------------------------------------------------------------------|
E|-6-6-6-(6)-----6-6-6-(6)-------6-6-6-9--4---6-6-6-(6)------6-6-6-(6)------6-6-6-9--4---|

G|---------------------------------------------------------------------------------------|
D|---------------------------------------------------------------------------------------|
A|---------------------------------------------------------------------------------------|
E|-6-6-6-(6)-----6-6-6-(6)-------6-6-6-9--4---6-6-6-(6)------6-6-6-(6)------6-6-6-4-4-4--|

(2:29) Bridge
G|--------------------------------------------------------------------------------------------------|
D|--------------------------------------------------------------------------------------------------|
A|--------------------------------------------------------------------------------------------------|
E|-6-----------------6-6--6------------6-6-6--6----------6-6-6--6-6--6-----6-6-6--6--6---6--6-------|

G|----------------------------------------------------------------------|
D|----------------------------------------------------------------------|
A|----------------------------------------------------------------------|
E|-6-6-6-6--6-6---6--6--6-----6-6-6--6-6--6--6--6-6--6---6-6-6--6-6-6-6-|

Play along with the drums

(3:12) Verse #3
G|-----------------------------------------------------------------------------------------------------------|
D|-----------------------------------------------------------------------------------------------------------|
A|-----------------------------------------------------------------------------------------------------------|
E|-6-6-6-6-6-6-6-6-6-6-6-6-6-6-6-6-6-6-6-6-6-6-6-6-6-6-6-6-6-4-4-4-2-2-2-2-2-2-2-2-2-2-2-2-2-2-2-2-2-2-2-2-2-|

G|---------------------------------------------------------------------------------------------------------|
D|---------------------------------------------------------------------------------------------------------|
A|---------------------------------------------------------------------------------------------------------|
E|-2-2-2-2-2-2-2-4-4-4-6-6-6-6-6-6-6-6-6-6-6-6-6-6-6-6-6-6-6-6-6-6-6-6-6-6-6-6-4-4-4-2-2-2-2-2-2-2-2-2-2-2-|

G|-----------------------------------------|
D|-----------------------------------------|
A|-----------------------------------------|
E|-2-2-2-2-2-2-2-2-2-2-2-2-2-2-2-2-2-4-4-4-|

(3:34) Refrain
G|---------------------------------------------------------------------------------------------------------|
D|---------------------------------------------------------------------------------------------------------|
A|-6-6-6-6-6-6-6-6-6-6-6-6-4-4-4-4-6-6-6-6-6-6-6-6-6-6-6-6-6-6-8-8-8-8-9-9-9-9-9-9-9-9-9-9-9-9/11-11-11-11-|
E|---------------------------------------------------------------------------------------------------------|

G|------------------------------------|
D|------------------------------------|
A|-9-9-9-9-9-9-9-9---------8-8-8-8----| (x2)
E|-----------------9-9-9-9------------|

(3:56) Outro
G|-------------------------------------------------------------------------------------------------------------|
D|-------------------------------------------------------------------------------------------------------------|
A|------------------------------------------------------------.--.---------------------------------------------|
E|-6-6-6-6-6-6-6-6-6-6-6-6-6-6-6-6-6-6-6-6-6-6-6-6-6-6-6-6-6--4--2--2-2-2-2-2-2-2-2-2-2-2-2-2-2-2-2-2-2-2-2-2--|

G|---------------------|
D|---------------------|
A|----------------.--.-|
E|-2-2-2-2-2-2-2--6--4-|


SYMBOLS
| /  slide up
| .  Staccato note
===============================================================================
Tabbed by: PsychoticLime, with special thanks to Martin Malenfant for helping out with the refrain section.
If you have any suggestions or questions you can email me at: dagostini.giacomo@gmail.com
Добавлено: 13.06.2016
Вам также может быть интересно:
Другие материалы по этой песне:
  • Аккорды и текст

Страница создана 13.06.2016
http://primanota.ru/public-service-broadcasting/go-chords.htm
Привет, Гость.
Предлагаем пройти революционный курс по гитаре.
Подарок от PrimaNota.Ru, забирай!