PrimaNota.ru - самый крупный в мире бесплатный архив песенных текстов, аккордов, табулатур и нот


Public Service Broadcasting - Gagarin - таба, видео

Регистрация Запомнить меня
Войти через:  Facebook Google Twitter Vk Yandex Mail.ru

Public Service Broadcasting - Gagarin - таба, видео

Печатать
Просмотров: 41
Авторы: J. Willgoose, Esq.

Intro:

D--D-D-D-D--D--D-D-D-D--E

Intro/Main verse 1 

|------------------|------------------------|------------------|---------------------|
|------------------|------------------------|------------------|---------------------|
|------------------|------------------------|------------------|---------------------|
|--------------4---|----------x-5-5-5-5-4---|------------4-----|-----------7-7-7-5-4-|
|--5h7-------5---5-|--5h7-----------------5-|--7-7-----5---5---|--5h7----------------|
|-------0----------|-------0----------------|------0-----------|-------0-------------|

00:38


|----------------------------------|
|----------------------------------|
|----9-12-11-9-----------9999999~--|
|--9-----------12-9-12-------------|
|----------------------------------|
|----------------------------------|

00:52


|------------------|
|------------------|
|------------------|
|------------------|
|--5--5-5-5--5-5-7-|
|------------------|


00:54

|------------------|---------------------|-----------------|------------------|-----------------|
|------------------|---------------------|-----------------|------------------|-----------------|
|------------------|---------------------|-----------------|------------------|-----------------|
|----4-------------|---------------------|----4------------|----5----4--------|----4------------|
|--5----5---5h7----|--5-10\5--5--5h7-----|--5----5--5h7----|--5----5----5-7-5-|--5----5--5h7----|
|----------------0-|-------------------0-|---------------0-|------------------|---------------0-|

|------------------|
|------------------|
|------------------|
|----5----4--------|
|--5----5----5-7-5-|
|------------------|


 1:08
 
|---------------------|
|---------------------|
|---------------------|
|---------4-5-4---4---|
|--5----5-------5---2-|
|-----7---------------|

Em                              

|-------------------------|------------------------------|
|---------------------8---|-----------------10-10-10-8---|
|--9--9---9-----9-9-9---9-|---9-----9---9--------------9-|
|--9--9---9-----9-9-9---9-|---9---------9--------------9-|
|-------7---7-7-7-7-7-----|-----------7---7--------------|
|-------------------------|------------------------------|

1:50

Em              Bm              D                 A
|-----------------|----------------|--------7--------|-----------------|
|--------8--------|-------7--------|----7---7--7---7-|--------5------5-|
|----9------9---9-|---7------7---7-|------7------7---|----6------6-----|
|--9---9------9---|-----9------9---|--7--------------|--7---7------7---|
|-----------------|-9--------------|-----------------|-----------------|
|-----------------|----------------|-----------------|-----------------|

2:22

|-----------------|----------|-------------------------------|-----------|
|-----------------|----------|-------------------------------|-----------|
|-----------------|----------|-------------------------------|-----------|
|-----------------|----------|-------------------------------|-----------|
|--5-5-5-5-5-7\0--|--5--7\0--|--7\0---5-5--5-5--5-5-5--7\0---|----5-7\0--|
|-----------------|----------|-------------------------------|--7--------|

2:39

|---------|----------------|-------------------|----------------|--------------------|
|---------|----------------|-------------------|----------------|--------------------|
|---------|----------------|-------------------|----------------|--------------------|
|---------|----4-----------|-------------------|----4-----------|----5-4-------------|
|--5h7----|--5---5--5h7----|--5-10\5--5-5h7----|--5---5--5h7----|--5-----5----5h7----|
|-------0-|--------------0-|-----------------3-|--------------3-|----------7-------7-|


|----------------|-----------------|----------------|--------------|
|----------------|-----------------|----------------|--------------|
|----------------|-----------------|----------------|--------------|
|----4-----------|-----------------|----4-----------|--------------|
|--5---5--5h7----|--5-10\5--5h7----|--5---5--5h7----|--5-5---5-7---|
|--------------7-|---------------5-|--------------5-|------7-----0-|
Добавлено: 23.12.2015
Другие материалы по этой песне:
  • Аккорды и текст

Страница создана 23.12.2015
http://primanota.ru/public-service-broadcasting/gagarin-chords.htm
Привет, Гость.
Предлагаем пройти революционный курс по гитаре.
Подарок от PrimaNota.Ru, забирай!