PrimaNota.ru - самый крупный в мире бесплатный архив песенных текстов, аккордов, табулатур и нот


Public Service Broadcasting - Everest - таба, видео

Регистрация Запомнить меня
Войти через:  Facebook Google Twitter Vk Yandex Mail.ru

Public Service Broadcasting - Everest - таба, видео

Печатать
Просмотров: 63
Авторы: J. Willgoose, Esq.

-------------------------------------------------------------------------------
                EVEREST - Public Service Broadcasting
-------------------------------------------------------------------------------
Tabbed by:tdub
E-mail:

Tuning:EADGBe

Just the little riff from the song, saw it wasn't up. Still working on the
rest of the song. Enjoy...

e|-------------------------------------------------------------6-------------|
B|8-6-4------8-6-4--------4-6-8----8-6-4------8-6-4--------4-6---------------|
G|------5----------5----5----------------3----------3----3-------------------|
D|---------------------------------------------------------------------------|
A|---------------------------------------------------------------------------|
E|---------------------------------------------------------------------------|

e|6----------6---------------------------------------------------------------|
B|--8-6-4------8-6-4----4-6-8-6-(4-4~)---------------------------------------|
G|---------------------------------------------------------------------------|
D|---------------------------------------------------------------------------|
A|---------------------------------------------------------------------------|
E|---------------------------------------------------------------------------|

************************************

| /   slide up
| \   slide down
| h   hammer-on
| p   pull-off
| ~   vibrato
| +   harmonic
| x   Mute note
| b   Bend
| pb  Pre-bend
| br  Bend release
| pbr Pre-bend release
| brb Bend release bend

************************************
Добавлено: 07.09.2014
Другие материалы по этой песне:
  • Аккорды и текст

Страница создана 07.09.2014
http://primanota.ru/public-service-broadcasting/everest-chords.htm
Привет, Гость.
Предлагаем пройти революционный курс по гитаре.
Подарок от PrimaNota.Ru, забирай!