PrimaNota.ru - самый крупный в мире бесплатный архив песенных текстов, аккордов, табулатур и нот


Public Enemy - You're Gonna Get Yours - текст песни, бас-таба, видео

Регистрация Запомнить меня
Войти через:  Facebook Google Twitter Vk Yandex Mail.ru

Public Enemy - You're Gonna Get Yours - текст песни, бас-таба, видео

Печатать
Просмотров: 112
Уроки эстрадного вокала в Санкт-Петербурге
Nothing that I can hear for the verse


       Chorus
G|------------------------------------|
D|----------------2-------------------|
A|------------3-5---------------------|  x2
E|-5--3--5----------5--3--5-----------|



  My '98 Olds mobile is!
                        s  s s  s
G|--------------------------------|
D|--------------------------------|
A|--------------------------------|     Until it's done.
E|----------------------4--4-4--4-|


Ending

  My '98 Olds mobile is!
                        s  s s  s
G|--------------------------------|
D|--------------------------------|
A|--------------------------------|    Until It's over.
E|----------------------4--4-4--4-|

   s
G|--------------------------------|
D|--------------------------------|
A|--------------------------------|
E|-4------------------------------|


(You don't HAVE to slap it. I just like doing it because of RHCP's cover)


This is my first tab. I hope it's right...If not, then I'm sorry.
Добавлено: 06.06.2013
Другие материалы по этой песне:
  • Аккорды и текст

Страница создана 23.03.2012
http://primanota.ru/public-enemy/youre-gonna-get-yours-chords.htm
Привет, Гость.
Предлагаем пройти революционный курс по гитаре.
Подарок от PrimaNota.Ru, забирай!