PrimaNota.ru - самый крупный в мире бесплатный архив песенных текстов, аккордов, табулатур и нот


Public Domain - Frère Jacques - бас-таба, видео

Регистрация Запомнить меня
Войти через:  Facebook Google Twitter Vk Yandex Mail.ru

Public Domain - Frère Jacques - бас-таба, видео

Печатать
Просмотров: 103
Уроки эстрадного вокала в Санкт-Петербурге
---------------------------------------------------------------------
                    Frère Jacques - Public Domain
---------------------------------------------------------------------
Tabbed by: RagnaarMN
Tuning: Standard
Key of F Major

G|----------------|----------------|----------------|----------------|
D|----------------|----------------|----------------|----------------|
A|--------0-------|--------0-------|0---1---3-------|0---1---3-------|
E|1---3-------1---|1---3-------1---|----------------|----------------|

G|----------------|----------------|----------------|----------------|
D|--0-------------|--0-------------|----------------|----------------|
A|3---3-1-0-------|3---3-1-0-------|----3-----------|----3-----------|
E|------------1---|------------1---|1-------1-------|1-------1-------|


Same thing up an octave:
G|----------------|----------------|----------------|----------------|
D|--------7-------|--------7-------|7---8---10------|7---8---10------|
A|8---10------8---|8---10------10--|----------------|----------------|
E|----------------|----------------|----------------|----------------|

G|----7---------------------------|----7----------------------------|
D|10------10--8---7---------------|10------10--8---7----------------|
A|------------------------8-------|-------------------------8-------|
E|--------------------------------|---------------------------------|

G|----------------|----------------|
D|----------------|----------------|
A|8-------8-------|8-------8-------|
E|----8-----------|----8-----------|


======================================================================
Добавлено: 11.05.2016
Другие материалы по этой песне:
  • Аккорды и текст

Страница создана 11.05.2016
http://primanota.ru/public-domain/frere-jacques-chords.htm
Привет, Гость.
Предлагаем пройти революционный курс по гитаре.
Подарок от PrimaNota.Ru, забирай!