PrimaNota.ru - самый крупный в мире бесплатный архив песенных текстов, аккордов, табулатур и нот


Psycostick - Beer - таба, видео

Регистрация Запомнить меня
Войти через:  Facebook Google Twitter Vk Yandex Mail.ru

Psycostick - Beer - таба, видео

Печатать
Просмотров: 100
Уроки эстрадного вокала в Санкт-Петербурге
Intro:

D#|-----------------|-----------------|-----------------|-----------------|
A#|-----------------|-----------------|-----------------|-----------------|
F#|-----------------|-----------------|-----------------|-----------------|
C#|-----------------|-----------------|-----------------|-----------------|
G#|---5---5---5-----|---5---5---5-----|---5---5---5-----|---5---5---5-----|
C#|-0---0---0---0-3-|-0---0---0---0-3-|-0---0---0---0-3-|-0---0---0---0-3-|
  Palm Muted**************************************************************

Verse:
                    
D#|-------------|-------------|--------------|-------------|
A#|-------------|-------------|--------------|-------------|
F#|-------------|-------------|--------------|-------------|
C#|-7--7--7-----|-7--7--7-----|-7--7--7------|-7--7--7-----|
G#|-5--5--5--5--|-5--5--5--5--|-5--5--5--5---|-5--5--5--5--| 
C#|----------3--|----------3--|-----------3--|----------3--|
                           
D#|-------------|-------------|--------------|-------------|
A#|-------------|-------------|--------------|-------------|
F#|-------------|-------------|--------------|-------------|
C#|-7--7--7-----|-7--7--7-----|-7--7--7------|-7--7--------|
G#|-5--5--5--3--|-5--5--5--3--|-5--5--5---3--|-5--5--------| 
C#|----------3--|----------3--|-----------3--|-------------|

Chorus:
   BEER IS GOOD! BEER IS GOOD! BEER IS GOOD!  ...AND STUFF!
D#|-------------|-------------|--------------|-------------|
A#|-------------|-------------|--------------|-------------|
F#|-------------|-------------|--------------|-------------|
C#|-5--0--0-----|-5--0--0-----|-5--0--0------|-----0-0-----|
G#|-5--0--0-----|-5--0--0-----|-5--0--0------|-----0-0-----| 
C#|-5--0--0-----|-5--0--0-----|-5--0--0------|-----0-0-----|
                            
                  
   BEER IS GOOD!  BEER IS GOOD!  BEER IS GOOD!  lets go drink some
D#|--------------|--------------|--------------|------------------|
A#|--------------|--------------|--------------|------------------|
F#|--------------|--------------|--------------|------------------|
C#|-5-5-0--0-----|-5-5-0--0-----|-5-5-0--0-----|------------------|
G#|-5-5-0--0-----|-5-5-0--0-----|-5-5-0--0-----|------------------|
C#|-5-5-0--0-----|-5-5-0--0-----|-5-5-0--0-----|------------------|
                             
   BEER!!!!!!!!!! BEER!!!!!!!!!! BEER!!!!!!!!!! BEER!!!!!!!!!!
D#|--------------|--------------|--------------|--------------|
A#|--------------|--------------|--------------|--------------|
F#|--------------|--------------|--------------|--------------|
C#|-0-0-0-0-5----|-0-0-0-0-5----|-0-0-0-0-5----|-0-0-0-0-5----|
G#|-0-0-0-0-5----|-0-0-0-0-5----|-0-0-0-0-5----|-0-0-0-0-5----|
C#|-0-0-0-0-5----|-0-0-0-0-5----|-0-0-0-0-5----|-0-0-0-0-5----|

   BEER!! BEER!!  BEER!! BEER!!  BEER!  BEER!   BEER!  BEER..
D#|--------------|--------------|--------------|--------------|
A#|--------------|--------------|--------------|--------------|
F#|--------------|--------------|--------------|--------------|
C#|-0-0-0-0-5----|-0-0-0-0-5----|-0-----3------|-0-----3----0-|
G#|-0-0-0-0-5----|-0-0-0-0-5----|-0-----3------|-0-----3----0-|
C#|-0-0-0-0-5----|-0-0-0-0-5----|-0-----3------|-0-----3----0-|

Outro:     

D#|----------|----------|----------|----------|
A#|----------|----------|----------|----------|
F#|----------|----------|----------|----------|
C#|-1-0-0-0--|-1-0-0-0--|-1-0-0-0--|-3-4-3-2--|
G#|-1-0-0-0--|-1-0-0-0--|-1-0-0-0--|-3-4-3-2--|
C#|-1-0-0-0--|-1-0-0-0--|-1-0-0-0--|-3-4-3-2--|

















             
Добавлено: 02.07.2012
Вам также может быть интересно:
Другие материалы по этой песне:
  • Аккорды и текст

Страница создана 02.07.2012
http://primanota.ru/psycostick/beer-chords.htm
Привет, Гость.
Предлагаем пройти революционный курс по гитаре.
Подарок от PrimaNota.Ru, забирай!