PrimaNota.ru - самый крупный в мире бесплатный архив песенных текстов, аккордов, табулатур и нот


Psychostick - The Dumb Song - текст песни, таба, видео

Регистрация Запомнить меня
Войти через:  Facebook Google Twitter Vk Yandex Mail.ru

Psychostick - The Dumb Song - текст песни, таба, видео

Печатать
Просмотров: 211
The Dumb Song
By Psychostick

Full Song

Tabbed by Matt Foreman

b = bend
/ = slide

Drop D Tuning

Listen to the song to know where the palm muting is.

X4
---Distorted-----------------------------------------------|
-----------------------------------------------------------|
-----------------------------------------------------------|
---0-0-0-0-0-0-0-0----------0-0-0-0----------0-0-0-0-------|
---0-0-0-0-0-0-0-0----------0-0-0-0----------0-0-0-0-------|
---0-0-0-0-0-0-0-0----------0-0-0-0----------0-0-0-0-------|

 ^ This part is slightly off from the song, but it's the
   best you can get with Drop D tuning, and it sounds just
   fine when you play it.

X2
-----------------------------------------------------------|
-----------------------------------------------------------|
-------6---------6---------6---------6---------6-----------|
---0-0-6---0-0-0-6---0-0-0-6---0-0-0-6---0-0-0-6-----------|
---0-0-4---0-0-0-4---0-0-0-4---0-0-0-4---0-0-0-4-----------|
---0-0-----0-0-0-----0-0-0-----0-0-0-----0-0-0-------------|

X1
----No Distortion------------------------------------------|
-----------------------------------------------------------|
-------------------5-5-5--5--5---------------------5-5-5---|
---4--4--4---4-4-4-5-5-5--5--5-5-5-4--4--4---4-4-4-5-5-5---|
---4--4--4---4-4-4-3-3-3--3--3-5-5-4--4--4---4-4-4-3-3-3---|
---4--4--4---4-4-4-------------5-5-4--4--4---4-4-4---------|

-----------------------------------------------------------|
-----------------------------------------------------------|
---5--5-5/6-----------------5-5-5--5--5--------------------|
---5--5-5/6-4--4--4---4-4-4-5-5-5--5--5-5-5-4--4--4--------|
---3--3-3/4-4--4--4---4-4-4-3-3-3--3--3-5-5-4--4--4--------|
------------4--4--4---4-4-4-------------5-5-4--4--4--------|

-----------------------------------------------------------|
-----------------------------------------------------------|
-----------------------------------------------------------|
---4-4-4---------------------------------------------------|
---4-4-4-3b--- <-- Always bend this note to make the pitch-|
---4-4-4---------- be wavy, going higher and lower slowly.-|

X2
---Distorted-----------------------------------------------|
-----------------------------------------------------------|
----------------------5-5-5--55-55-------------------------|
---4--4--44--4--44--4-5-5-5--55-55-5-5---------------------|
---4--4--44--4--44--4-3-3-3--33-33-5-5---------------------|
---4--4--44--4--44--4--------------5-5---------------------|

X1
-----------------------------------------------------------|
-----------------------------------------------------------|
----------------------5-5-5--55-55-------------------------|
---4--4--44--4--44--4-5-5-5--55-55-5-5-4----5-54-4-4-4-----|
---4--4--44--4--44--4-3-3-3--33-33-5-5-4----5-54-4-4-4-----|
---4--4--44--4--44--4--------------5-5-4----5-54-4-4-4-----|

-----------------------------------------------------------|
-----------------------------------------------------------|
---5-5-5--55-55-5/6-6--------------------------------------|
---5-5-5--55-55-5/6-6--------------------------------------|
---3-3-3--33-33-3/4-4--------------------------------------|
-----------------------------------------------------------|

X2
-----------------------------------------------------------|
-----------------------------------------------------------|
-------6---------6---------6---------6---------6-----------|
---0-0-6---0-0-0-6---0-0-0-6---0-0-0-6---0-0-0-6-----------|
---0-0-4---0-0-0-4---0-0-0-4---0-0-0-4---0-0-0-4-----------|
---0-0-----0-0-0-----0-0-0-----0-0-0-----0-0-0-------------|

X3
-----------------------------------------------------------|
-----------------------------------------------------------|
----------------------5-5-5--55-55-------------------------|
---4--4--44--4--44--4-5-5-5--55-55-5-5---------------------|
---4--4--44--4--44--4-3-3-3--33-33-5-5---------------------|
---4--4--44--4--44--4--------------5-5---------------------|

X1
-----------------------------------------------------------|
-----------------------------------------------------------|
----------------------5-5-5--55-55-5/6-6-------------------|
---4--4--44--4--44--4-5-5-5--55-55-5/6-6-------------------|
---4--4--44--4--44--4-3-3-3--33-33-3/4-4-------------------|
---4--4--44--4--44--4--------------------------------------|

X2
-----------------------------------------------------------|
-----------------------------------------------------------|
---------------4--4--4--4--------------6--6--6--6----------|
---1--1--1--1--4--4--4--4--1--1--1--1--6--6--6--6----------|
---1--1--1--1--2--2--2--2--1--1--1--1--4--4--4--4----------|
---1--1--1--1--------------1--1--1--1----------------------|

X1
---No Distortion-------------------------------------------|
-----------------------------------------------------------|
-------------------5-5-5--5--5-----------------------------|
---4--4--4---4-4-4-5-5-5--5--5-5-5-4--4--4---4-4-4---------|
---4--4--4---4-4-4-3-3-3--3--3-5-5-4--4--4---4-4-4-3b------|
---4--4--4---4-4-4-------------5-5-4--4--4---4-4-4---------|

X2
---Distorted-----------------------------------------------|
-----------------------------------------------------------|
----------------------5-5-5--55-55-------------------------|
---4--4--44--4--44--4-5-5-5--55-55-5-5---------------------|
---4--4--44--4--44--4-3-3-3--33-33-5-5---------------------|
---4--4--44--4--44--4--------------5-5---------------------|

X1
-----------------------------------------------------------|
-----------------------------------------------------------|
----------------------5-5-5--55-55-------------------------|
---4--4--44--4--44--4-5-5-5--55-55-5-5-4-------------------|
---4--4--44--4--44--4-3-3-3--33-33-5-5-4-------------------|
---4--4--44--4--44--4--------------5-5-4-------------------|

-----------------------------------------------------------|
-----------------------------------------------------------|
-----------------------------------------------------------|
-------------4------------------4--------------------------|
-------------4------------------4--------------------------|
-------------4------------------4--------------------------|

-----------------------------------------------------------|
-----------------------------------------------------------|
----------------------5-5-5--55-55-5/6-6-------------------|
---4--4--44--4--44--4-5-5-5--55-55-5/6-6-------------------|
---4--4--44--4--44--4-3-3-3--33-33-3/4-4-------------------|
---4--4--44--4--44--4--------------------------------------|

-----------------------------------------------------------|
-----------------------------------------------------------|
---------------4--4--4--4--------------6--6--6--6----------|
---1--1--1--1--4--4--4--4--1--1--1--1--6--6--6--6----------|
---1--1--1--1--2--2--2--2--1--1--1--1--4--4--4--4----------|
---1--1--1--1--------------1--1--1--1----------------------|

-----------------------------------------------------------|
-----------------------------------------------------------|
------------4--4--4--4--------------6--6--6--6--6--6--6--6-|
1--1--1--1--4--4--4--4--1--1--1--1--6--6--6--6--6--6--6--6-|
1--1--1--1--2--2--2--2--1--1--1--1--4--4--4--4--4--4--4--4-|
1--1--1--1--------------1--1--1--1-------------------------|


X4
-----------------------------------------------------------|
-----------------------------------------------------------|
-----------------------------------------------------------|
---3-2---3-1---3-0-----------------------------------------|
---3-2---3-1---3-0-----------------------------------------|
---3-2---3-1---3-0-----------------------------------------|

2nd Guitar Palm Mute this at the same time
X4
-----------------------------------------------------------|
-----------------------------------------------------------|
-----------------------------------------------------------|
---222222221111111100000000000000--------------------------|
---222222221111111100000000000000--------------------------|
---222222221111111100000000000000--------------------------|

X4
-----------------------------------------------------------|
-----------------------------------------------------------|
-----------------------------------------------------------|
---10-10-10-10-2-0-----------------------------------------|
---10-10-10-10-2-0-----------------------------------------|
---10-10-10-10-2-0-----------------------------------------|


X8
-----------------------------------------------------------|
-----------------------------------------------------------|
-----------------------------------------------------------|
---01-01-01-01-0121----------------------------------------|
---01-01-01-01-0121----------------------------------------|
---01-01-01-01-0121----------------------------------------|

X1
---No Distortion-------------------------------------------|
-----------------------------------------------------------|
-------------------5-5-5--5--------------------------------|
---4--4--4---4-4-4-5-5-5--5--------------------------------|
---4--4--4---4-4-4-3-3-3--3--------------------------------|
---4--4--4---4-4-4-----------------------------------------|

X4
---Distorted-----------------------------------------------|
-----------------------------------------------------------|
-----------------------------------------------------------|
---01-01-01-01-0121----------------------------------------|
---01-01-01-01-0121----------------------------------------|
---01-01-01-01-0121----------------------------------------|

X1
---No Distortion-------------------------------------------|
-----------------------------------------------------------|
-------------------5-5-5--5--5---------------------5-5-5---|
---4--4--4---4-4-4-5-5-5--5--5-5-5-4--4--4---4-4-4-5-5-5---|
---4--4--4---4-4-4-3-3-3--3--3-5-5-4--4--4---4-4-4-3-3-3---|
---4--4--4---4-4-4-------------5-5-4--4--4---4-4-4---------|

-----------------------------------------------------------|
-----------------------------------------------------------|
---5--5-5/6-----------------5-5-5--5--5--------------------|
---5--5-5/6-4--4--4---4-4-4-5-5-5--5--5-5-5-4--4--4--------|
---3--3-3/4-4--4--4---4-4-4-3-3-3--3--3-5-5-4--4--4--------|
------------4--4--4---4-4-4-------------5-5-4--4--4--------|

-----------------------------------------------------------|
-----------------------------------------------------------|
-----------------------------------------------------------|
---4-4-4---------------------------------------------------|
---4-4-4-3b------------------------------------------------|
---4-4-4---------------------------------------------------|

X3
---Distorted-----------------------------------------------|
-----------------------------------------------------------|
----------------------5-5-5--55-55-------------------------|
---4--4--44--4--44--4-5-5-5--55-55-5-5---------------------|
---4--4--44--4--44--4-3-3-3--33-33-5-5---------------------|
---4--4--44--4--44--4--------------5-5---------------------|

X1
---------------------------------------8-------------------|
---------------------------------------8-------------------|
---------------------5-5-5--55--------10----Let Ring...----|
--4--4--44--4--44--4-5-5-5--55--------11—------------------|
--4--4--44--4--44--4-3-3-3--33-----------------------------|
--4--4--44--4--44--4---------------------------------------|

Thats it. Hope You Liked it.


*-*-*-*-*-*-*-*-*-*-*-*-*-*-*-*-*-*-*-*-*-*-*-*-*-*-*-*-*-*-*-*-*-*

**This tab may not be plagiarised, and is the tabber's own work.**
Добавлено: 24.02.2012
Другие материалы по этой песне:
  • Аккорды и текст

Страница создана 24.02.2012
http://primanota.ru/psychostick/the-dumb-song-chords.htm
Привет, Гость.
Предлагаем пройти революционный курс по гитаре.
Подарок от PrimaNota.Ru, забирай!