PrimaNota.ru - самый крупный в мире бесплатный архив песенных текстов, аккордов, табулатур и нот


Psychostick - Orgasm Love - текст песни, таба, видео

Регистрация Запомнить меня
Войти через:  Facebook Google Twitter Vk Yandex Mail.ru

Psychostick - Orgasm Love - текст песни, таба, видео

Печатать
Просмотров: 301
Уроки эстрадного вокала в Санкт-Петербурге
Psychostick- Orgasm = love
standard tuning...
idk if this tab is 100%... but it's really close... it'll
give you a good idea of how it's played... have fun =]

intro:
-----9-----9--------7-----7---|
---7--------------7-----------| play this a few times, then start
-8-----8-8---8--8-----8-8---8-| to strum the chords...
------------------------------|
------------------------------|
------------------------------|

Verse:
-----------(7)------|
-----------(7)--9---|
-8------8---8--10---|
-8------6---9--11---|
-6------6---9--11---|
-------(0)--7---9---|

Chorus:
----------------|
-(9)------------|
--8------7------|
--8------5------|
--6------3------|
----------------| 

during the chorus i think he throws this in once or twice...ish
------|
------|
--7---|
--6---|
--3---|
------|

and end with this:
------|
------|
--8---|
--8---|
--6---|
------|

Bridge: "Take it joshy..."
-------------------------------------|
-------------------------------------|
-8---8---8----8----8---8----8----8---|
-8---8---8----8----8---8----9---11---|
-6---7---9---11---12-----------------|
-------------------------------------|
to be honest... i'm not too sure about this part =/ ...

then finish off with the chorus... and that's it... i'm pretty sure... =|
lol....

because tieing you up to my bed
and gagging you with your own panties
and sticking my weiner in between your boobies
and cumming all over your chin equals love <3 

awwww... haha
Добавлено: 25.07.2012
Другие материалы по этой песне:
  • Аккорды и текст

Страница создана 25.07.2012
http://primanota.ru/psychostick/orgasm-love-chords.htm
Привет, Гость.
Предлагаем пройти революционный курс по гитаре.
Подарок от PrimaNota.Ru, забирай!