PrimaNota.ru - самый крупный в мире бесплатный архив песенных текстов, аккордов, табулатур и нот


Psychostick - Beer Song - таба, видео

Регистрация Запомнить меня
Войти через:  Facebook Google Twitter Vk Yandex Mail.ru

Psychostick - Beer Song - таба, видео

Печатать
Просмотров: 147
Band:  Psychostick (http://www.psychostick.com)
Album: We Couldn't Think of a Title!
Song:  BEER!!!!!

Copyright (c)  Rock Ridge Music (2003-?)
Version 1.0 - (9/17/2006)

Transcribed By: Pigeonkicker a.k.a. XIXIX
Email:          (xpigeonkickerx@yahoo.com)

           


              .  - palm mute   




Tuning C# G# C# F# A# D#

         RIFF 1               RIFF 2 
D#|-------------------| |------------------|
A#|-------------------| |------------------|
F#|-------------------| |------------------|
C#|-------------------| |------------------|
G#|---7---7---7-------| |--7---7---7-------|
C#|-0---0---0---0-4---| |--------------4---|


         
        RIFF 3 
           (x3)           RIFF 4  (x3)                   
D#|-----------|--------| |-----------|
A#|-----------|--------| |-----------|
F#|-----------|--------| |-----------|
C#|-----------|--------| |-----------|
G#|-----------|--------| |-----------|
C#|--7--0--0--|--0--0--| |--7--0--0--|


   Let's Go Drink Some.......
            RIFF 5       
                   (x6)
D#|--------------------|-------------|
A#|--------------------|-------------|
F#|--------------------|-------------|
C#|--------------------|-------------|
G#|--------------------|-------------|
C#|-0--0-0--7--0----0--|--1---1---1--|



    OOW!         RIFF 6        -  (x4)
D#|----------------------------------|
A#|----------------------------------|
F#|----------------------------------|
C#|----------------------------------|
G#|----------------------------------|
C#|-2-1-1-1-2-1-1-1-2-1-1-1-4-5-4-3--|

P.M-. . . . . . . . . . . . . . . .

                  RIFF 7         (x4) 
D#|----------------------------------|
A#|----------------------------------|
F#|----------------------------------|
C#|----------------------------------|
G#|----------------------------------|
C#|-2-1-1-1-2-1-1-1-2-1-1-1-4-5-4-3--|
P.M     . .     . .     . .   

        END
|------------------|
|------------------|
|------------------|
|------------------|
|------------------|
|---1--1--1--1--1--|
P.M..  .  .  . 

ORDER:
------------------------
|(0:01) RIFF 1 (x4)    |
|(0:09) RIFF 2 (x8)    |
|(0:24) RIFF 3 (x3)    |
|(0:28) RIFF 4 (x3)    |
|(0:32) RIFF 5 (x6)    |
|(0:40) RIFF 1 (x4)    |
|(0:48) RIFF 2 (x8)    |
|(1:03) RIFF 3 (x3)    |
|(1:07) RIFF 4 (x3)    |
|(1:11) RIFF 5 (x6)    |
|(1:18) RIFF 6 (x4)    |
|(1:33) RIFF 2 (x2)    |
|(1:37) RIFF 6 (x2)    |
|(1:45) RIFF 7 (x4)    |
|(1:58) END            |
|(1:19) Drunken Rambling
------------------------
END

Добавлено: 17.04.2012
Другие материалы по этой песне:

Страница создана 17.04.2012
http://primanota.ru/psychostick/beer-song-chords.htm
Привет, Гость.
Предлагаем пройти революционный курс по гитаре.
Подарок от PrimaNota.Ru, забирай!