PrimaNota.ru - самый крупный в мире бесплатный архив песенных текстов, аккордов, табулатур и нот


Psycho Motel - Something Real - таба, видео

Регистрация Запомнить меня
Войти через:  Facebook Google Twitter Vk Yandex Mail.ru

Psycho Motel - Something Real - таба, видео

Печатать
Просмотров: 122
Уроки эстрадного вокала в Санкт-Петербурге
*******************
Psycho Motel
"SOMETHING REAL"
*******************

Tabbed by MARCIN 'Vial' NAWROCKI


This is the main part of ending solo. 
E|------------------------------------------------19-----------------------|
B|-------------------7-8-8/12---14--15--14--15-17----17----------17--------|
G|-------6-7---6-7-9------------------------------------15-----------------|
D|--9--9---------------------------------------------------14--------------|
A|------------------------------------------------------------14-----------|
E|-------------------------------------------------------------------------|


E|----/--14------------------15-14------------------------|
B|-17/------17-14----------14------17-15-14-12-12---------|
G|----------------15-----15-------------------------------|
D|---------------------16---------------------------------|
A|--------------------------------------------------------|
E|--------------------------------------------------------|


E|-17-15-14----15-14------14-----------------------------------------------------------|
B|----------17-------17-15---17-15-14-17-15-14----15-14--------------------------------|
G|---------------------------------------------16-------16-14--------------------------|
D|------------------------------------------------------------17-16-14-----------------|
A|---------------------------------------------------------------------17-16-14--------|
E|-----------------------------------------------------------------------------17-15-14|

After that there is some difficult tapping and it's quite hard to tab.
It's sounds like this...

       T            T           T
B|-4h7-11----|-4h7--12----|-4h7-12----|

You should repeat this three parts in some order :P

Enjoy the solo!
Добавлено: 25.04.2012
Другие материалы по этой песне:

Страница создана 05.03.2012
http://primanota.ru/psycho-motel/something-real-chords.htm
Привет, Гость.
Предлагаем пройти революционный курс по гитаре.
Подарок от PrimaNota.Ru, забирай!