PrimaNota.ru - самый крупный в мире бесплатный архив песенных текстов, аккордов, табулатур и нот


Psycho 44 - No Metaphor - бас-таба, видео

Регистрация Запомнить меня
Войти через:  Facebook Google Twitter Vk Yandex Mail.ru

Psycho 44 - No Metaphor - бас-таба, видео

Печатать
Просмотров: 95
Уроки эстрадного вокала в Санкт-Петербурге
-------------------------------------------------------------------------------
                             No Metaphor - Psycho 44
-------------------------------------------------------------------------------
Tabbed by: Darkslider
E-mail: tombruggeman@outlook.com

Tuning: EADG


[Verse 1]

G|---------------------------------|
D|---------------------------------|
A|---------------------------------| 
E|-10\0--13\0--10\0--8-0-----------| x2

G|------------------------------------------------------------------|
D|-----------------------12-12-12-12-11-11-11-11-10-10-10-10-9-9-9-9|
A|------------------------------------------------------------------| x2
E|-10\0--13\0--10\0--8-0--------------------------------------------|


[Pre-Chorus]

G|------------------------------------------------------------|
D|------------------------------------------------------------|
A|------------------------------------------------------------| 
E|-10\0--13\0--10\0--8-0---10-10-10-10-9-9-9-9-8-8-8-8-7-7-7-7|


G|------------------------------------------------|
D|------------------------------------------------|
A|------------------------------------------------| 
E|-10\0--13\0--10\0--8-0---10-10-10-10-9-9-9-9-8-8|

[Chorus 1]

G|--------------------------------------------------------------------|
D|-----------------------------------------------------7-7-7-7-6-6-6-6|
A|--------------------------------------------------------------------| 
E|-6-6-6-6-1-1-1-1-10-10-10-10-9-9-9-9-6-6-6-6-1-1-1-1----------------|

 
G|---------------------------------------------------------|
D|---------------------------------------------------------|
A|---------------------------------------------------------| 
E|-66666666-11111111-1010101010101010-99999999-66666666-5--| '1' and '10'


[Verse 2]

G|------------------------------------------------------------------|
D|-----------------------12-12-12-12-11-11-11-11-10-10-10-10-9-9-9-9|
A|------------------------------------------------------------------| x2
E|-10\0--13\0--10\0--8-0--------------------------------------------| 

G|-----------------------------------------------9-9-9-9-12-12-12-12|
D|-----------------------12-12-12-12-11-11-11-11--------------------|
A|------------------------------------------------------------------| x2
E|-10\0--13\0--10\0--8-0--------------------------------------------|

[Pre-Chorus]

G|------------------------------------------------------------|
D|------------------------------------------------------------|
A|------------------------------------------------------------| 
E|-10\0--13\0--10\0--8-0---10-10-10-10-9-9-9-9-8-8-8-8-7-7-7-7|


G|------------------------------------------------|
D|------------------------------------------------|
A|------------------------------------------------| 
E|-10\0--13\0--10\0--8-0---10-10-10-10-9-9-9-9-8-8|

[Chorus 2]

G|--------------------------------------------------------------------|
D|-----------------------------------------------------7-7-7-7-6-6-6-6|
A|--------------------------------------------------------------------| 
E|-6-6-6-6-1-1-1-1-10-10-10-10-9-9-9-9-6-6-6-6-1-1-1-1----------------| 


G|-------------------------------------------------------------------------------|
D|---------------------------------------------------------------777777777777777-|
A|-------------------------------------------------------------------------------| 
E|-66666666-11111111-1010101010101010-99999999-66666666-11111111-----------------|

[Bridge]

G|------------------------------------------------------------|
D|------------------------------------------------------------|
A|------------------------------------------------------------| 
E|-10\0--13\0--10\0--8-0---10-10-10-10-9-9-9-9-8-8-8-8-7-7-7-7| x3

G|-------------------------------------------------------------------------------------------|
D|--------------------------------------------------------------------------8---------------8|
A|------------------------11-8-11-8-11-10--8-11-8-11-8-11-10--8-11-8-11-8-11--8-11-8-11-8-11-| 
E|-10\0--13\0--10\0--8-0---------------------------------------------------------------------|


G|------------------------------------------------------------------|
D|----10----10----10-9-------10----10----10-9---9-10\---------------|
A|-11----11----11---------11----11----11----------------------------| 
E|--------------------------------------------------------------x-5-


[Chorus 3]

G|--------------------------------------------------------------------|
D|-----------------------------------------------------7-7-7-7-6-6-6-6|
A|--------------------------------------------------------------------| 
E|-6-6-6-6-1-1-1-1-10-10-10-10-9-9-9-9-6-6-6-6-1-1-1-1----------------| 


G|---------------------------------------------------------------------------------|
D|---------------------------------------------------------------77777777-66666666-|
A|---------------------------------------------------------------------------------| 
E|-66666666-11111111-1010101010101010-99999999-66666666-11111111-------------------|


[Outro]


G|---------------------------------------------------------------------------------|
D|---------------------------------------------------------------77777777-66666666-|
A|---------------------------------------------------------------------------------| 
E|-66666666-11111111-1010101010101010-99999999-66666666-11111111-------------------|



G|------------|
D|------------|
A|------------| 
E|-6~---------|


| /  slide up
| \  slide down
| h  hammer-on
| p  pull-off
| ~  vibrato
| +  harmonic
| x  Mute note
===============================================================================
Добавлено: 13.11.2015
Вам также может быть интересно:
Другие материалы по этой песне:
  • Аккорды и текст

Страница создана 13.11.2015
http://primanota.ru/psycho-44/no-metaphor-chords.htm
Привет, Гость.
Предлагаем пройти революционный курс по гитаре.
Подарок от PrimaNota.Ru, забирай!