PrimaNota.ru - самый крупный в мире бесплатный архив песенных текстов, аккордов, табулатур и нот


Psychic Tv - Just Drifting - таба, видео

Регистрация Запомнить меня
Войти через:  Facebook Google Twitter Vk Yandex Mail.ru

Psychic Tv - Just Drifting - таба, видео

Печатать
Просмотров: 182
Band: Psychic TV
Album: "Force The Hand of Chance"
Chords by Alexey Pavlov (twitter.com/alspavlov)

Chords: A, D, G, C

How to play the album version of this song:

         A                            D            
e-----------0---0---0--|-------------2---2---2----|
B----------------------|--------------------------|
G----------------------|--------------------------|
D----------------------|--0-----------------------|
A----0-----------------|--------------------------|
E----------------------|--------------------------|

         G                            C            
e-------------3---3---3--|------------0---0---0-------|
B------------------------|----------------------------|
G------------------------|----------------------------|
D------------------------|----------------------------|
A------------------------|---3------------------------|
E---3--------------------|----------------------------|

etc

A               D
Sometimes, just drifting
        G
in this simple world
C
like a country stream,
A
asleep to discussion
D
(the numbness of content)
G              C
I see you smile drifting.
Like a country stream,
my little girl,
precious and pure
as I fall back,
into softness and sleep
you Caresse me with simple love
you possess me with
simple love.

A Caresse is just a touch,
and you touched my heart, and now that we're together
you and I will never part.

You Caresse me with simple love,
you possess me with simple love,
place becomes time
space becomes mine
and all ways,
like this robe,
green like a country dream
you surround me, and cover me
protect me and Caresse me
with that special simple love,

Sometimes, just drifting,
like a country stream
precious and pure,
I see you smile
asleep to discussion
of this simple word,
the numbness of content
drifting
like a country scene
as I fall back
into softness and sleep
you possess me with
simple love.
You Caresse me with simple love,
you possess me with simple love,
space becomes time,
place becomes mind
and all ways
like this rose
seen like a country stream
you surround me
and comfort me,
protect me
and Caresse me
with that special simple love.
Добавлено: 26.08.2013
Вам также может быть интересно:
Другие материалы по этой песне:
  • Аккорды и текст

Страница создана 26.08.2013
http://primanota.ru/psychic-tv/just-drifting-chords.htm
Привет, Гость.
Предлагаем пройти революционный курс по гитаре.
Подарок от PrimaNota.Ru, забирай!