PrimaNota.ru - самый крупный в мире бесплатный архив песенных текстов, аккордов, табулатур и нот


Psychedelic Furs - All That Money Wants - аккорды и текст, видео

Регистрация Запомнить меня
Войти через:  Facebook Google Twitter Vk Yandex Mail.ru

Psychedelic Furs - All That Money Wants - аккорды и текст, видео

Печатать
Просмотров: 106
Уроки эстрадного вокала в Санкт-Петербурге
All That Money Wants
Psychedelic Furs
		   Author/Artist: Psychedelic Furs
Title: All That Money Wants
Transcribed by: Mitch Wylie
Email: carjammerman@aol.com

this is my own work

------------------------------------------------------------------------------
-----------5---5-----------5---5----------------------------------------------
---4---4---5---5---4---4---5---5----------------------------------------------
---5---5---5---5---5---5---5---5----------------------------------------------
---5---5---3---3---5---5---3---3----------------------------------------------
---3---3-----------3---3------------------------------------------------------
   Guitar 1  Intro/chorus                                                     

----7-3-1111--7-3-1111---1111111111----7-3-1111--7-3-1111----1111111111-------
------------------------------------------------------------------------------
------------------------------------------------------------------------------
------------------------------------------------------------------------------
------------------------------------------------------------------------------
------------------------------------------------------------------------------
   Guitar 2    Intro/ Chorus                                                  

------------------------------------------------------------------------------
----------5-5---------5-5---------5-5---------5-5-----------------------------
----4-4---5-5---4-4---5-5---6-6---5-5---6-6---5-5-----------------------------
----5-5---5-5---5-5---5-5---7-7---5-5---7-7---5-5-----------------------------
----5-5---3-3---5-5---3-3---7-7---3-3---7-7---3-3-----------------------------
----3-3---------3-3---------5-5---------5-5-----------------------------------
   Guitar 1 Verse                                                             

     
Добавлено: 07.10.2013
Другие материалы по этой песне:
  • Аккорды и текст

Страница создана 07.10.2013
http://primanota.ru/psychedelic-furs/all-that-money-wants-chords.htm
Привет, Гость.
Предлагаем пройти революционный курс по гитаре.
Подарок от PrimaNota.Ru, забирай!