PrimaNota.ru - самый крупный в мире бесплатный архив песенных текстов, аккордов, табулатур и нот


Psyborg Corp - My Mechatronics - бас-таба, видео

Регистрация Запомнить меня
Войти через:  Facebook Google Twitter Vk Yandex Mail.ru

Psyborg Corp - My Mechatronics - бас-таба, видео

Печатать
Просмотров: 93
Intro (Wait 7 seconds)

G|----------------------|
D|----------------------|
A|----------------------|
E|5----5----5-----5xxxxx|  X4


Verse

G|---------------------------|
D|---------------------------|
A|---------------44----------|
E|55---77---33--------55---22|  X4


Nothing for pre-chorus (1:08-1:13)


Chorus (Machines at war...)

G|-----------------------------------------|
D|-----------------------------------------|
A|-----------------------------------------|
E|00000000333333323455555555666645677777777|  X5


Break (2:00-2:04)


Bridge

G|----------------------|
D|----------------------|
A|----------------------|
E|00--0--00-------------|


Verse X4


Nothing for Pre-chorus (2:39-2:45)


Chorus X4


After Chorus (3:16-3:45)

G|----------------|
D|----------------|
A|----------------|
E|3333333399995555|


Break (Until 3:49)


Chorus X4


Final Chorus (Play 11s, 10s, 12s, 13s, 14s and 15s) 

G|----------------------------------------------------------------------|
D|----------------------------------------------------------------------|
A|----------------------------------------------------------------------|
E|9999999911111111111111101112131313131313131414141412131415151515151515| X4
Добавлено: 06.09.2013
Вам также может быть интересно:
Другие материалы по этой песне:
  • Аккорды и текст

Страница создана 06.09.2013
http://primanota.ru/psyborg-corp/my-mechatronics-chords.htm
Привет, Гость.
Предлагаем пройти революционный курс по гитаре.
Подарок от PrimaNota.Ru, забирай!