PrimaNota.ru - самый крупный в мире бесплатный архив песенных текстов, аккордов, табулатур и нот


Pspazz - Secret Track - аккорды и текст, таба

Регистрация Запомнить меня
Войти через:  Facebook Google Twitter Vk Yandex Mail.ru

Pspazz - Secret Track - аккорды и текст, таба

Печатать
Просмотров: 101
Secret Track
Pspazz
		   Secret track #1 off of Missile Toe
by: PSPAZZ
tabbed by Jesse Palmer
StageDvr@aol.com or
mkp@traveller.com

This song is pretty cool. I've never heard of the band before, but I like=
d the =

name so I got it. The song is fairly easy if you already know how to play=
 =

Puff the Magic Dragon. Enough chit-chat, here's what you came for. I'm ti=
red of =

tabbing all these easy chords. G I won't. Corrections are welcome. E-mai=
l me =

if you can use this. Why do I feel like the only guy who puts up cool chr=
istian
music(except for all the Tourniquet tabbers)?

Standard Tuning
Intro
  C5             E5               F5         C5(2) =

e-----------------------------------------------------
B-----------------------------------------------------
G-----------------------------------------------------
D-----------------------------------------------10-10-
A-3-3-3-3-3-3-3-3-7-7-7-7-7-7-7-7-8-8-8-8-8-8---------
E-----------------------------------------------------
   C5             F5          C5(2) C5
e---------------------------------------------------
B---------------------------------------------------
G---------------------------------------------------
D-----------------------------10-10-----------------
A-3-3-3-3-3-3-3-3-8-8-8-8-8-8-------3-3-3-3-3-3-3-3-
E---------------------------------------------------

Chords
Am G5
C5 E5 F5 C5 F5 C5 Am G5

Verse 1 (Intro chord progression is played throughout the whole song)
Puff the magic dragon lived by the sea,
and if you don't eat your food, well he's gonna rape me!
And if you don't eat your food, well you're gonna get sick,
and if you get sick, well i'm gonna grab a big stick!

the chorus is just a bunch of ooooooohhhhhhhhhh's and aaaaaaaaaaahhhhhhhh=
hhh's
with the chords.

Verse 2 (Lincoln is dead, but I don't think those are the correct lyrics)=

Lincoln's dead, Lincoln's dead, now Lincoln's dead, cause God ain't dead,=

Lincoln's dead, Lincoln's dead, and he's never coming back!
I worship the one true God, and I worship the one true God,
I worship the one true God, and his name is son Jesus Christ!

Outro (Look at this!)

C5
C5 C5
C5 C5 C5
C5 C5 C5 C5
C5 C5 C5 C5 C5
C5 C5 C5 C5 C5 C5
C5 C5 C5 C5 C5 C5 C5
C5 C5 C5 C5 C5 C5 C5 C5
C5 C5 C5 C5 C5 C5 C5 C5 C5
C5 C5 C5 C5 C5 C5 C5 C5 C5 C5=     
Добавлено: 06.10.2013
Вам также может быть интересно:
Другие материалы по этой песне:
  • Аккорды и текст

Страница создана 18.04.2012
http://primanota.ru/pspazz/secret-track-chords.htm
Привет, Гость.
Предлагаем пройти революционный курс по гитаре.
Подарок от PrimaNota.Ru, забирай!