PrimaNota.ru - самый крупный в мире бесплатный архив песенных текстов, аккордов, табулатур и нот


Psapp - Tricycle - аккорды и текст, видео

Регистрация Запомнить меня
Войти через:  Facebook Google Twitter Vk Yandex Mail.ru

Psapp - Tricycle - аккорды и текст, видео

Печатать
Просмотров: 159
Уроки эстрадного вокала в Санкт-Петербурге
Tricycle
Psapp
-------------------------------------------------------------------------------
			     Tricycle - Psapp
-------------------------------------------------------------------------------
Tabbed by: Klapau
Email: ilkkaonparas@hotmail.com
Psapp the band: http://psapp.greedbag.com/

Tuning: Eb
D?= xx0235

A	     F#m	
You know and I know
A            F#m
How we work and how we hope
Bm	     D?    A
We'll get all tied up

A        
You made some magic
F#m             A
You didn't even try
F#m		    Bm
It fell out of your eyes
      D?    A    F#m
Then, I did too

A		   F#m
You counted ten on one hand today
A          F#m
My fingers get in the way
      Bm  D?   A   F#m
I get all tied up

Solo

A	     F#m
You know and I know
A	     F#m
How we work and how we hope
Bm	   D?   A   F#m
We get all tied up

A	  F#m           
I drag my feet
	    A
And drag us down
F#m               Bm
You don't want me around
D?         A    F#m
To tie you up 

A F#m
A F#m
Bm D? A F#m

Solo/Outro:

eb|-------/4-2----------/5-4-----------/4-2-------|
Bb|--2-2--------0--2-2---------0--2-2-------------|
Gb|-----------------------------------------------|
Db|-----------------------------------------------|
Ab|-----------------------------------------------|
Eb|-----------------------------------------------|

eb|--------------/5-4-7---------------------------|
Bb|-0--3-2-0-2------------------------------------|
Gb|-----------------------------------------------|
Db|-----------------------------------------------|
Ab|-----------------------------------------------|
Eb|-----------------------------------------------|
Добавлено: 07.03.2012
Другие материалы по этой песне:
  • Аккорды и текст

Страница создана 07.03.2012
http://primanota.ru/psapp/tricycle-chords.htm
Привет, Гость.
Предлагаем пройти революционный курс по гитаре.
Подарок от PrimaNota.Ru, забирай!