PrimaNota.ru - самый крупный в мире бесплатный архив песенных текстов, аккордов, табулатур и нот


Провода - 90е - аккорды и текст, видео

Регистрация Запомнить меня
Войти через:  Facebook Google Twitter Vk Yandex Mail.ru

Провода - 90е - аккорды и текст, видео

Печатать
Просмотров: 92
90е
Провода
Em                    Bm
Где-то лет в двадцать стали стареть,
Am                       C
Сменили кастеты на пистолеты.
Белые розы убили в снегу
Слово "Fuck you" учили по видаку.
Веселый бардак, то с кайфом, то с болью,
Твой красный пиджак, проеденный молью
Налей Амаретто - я пью эту гадость
За тех, в ком еще группа крови осталась 

Am                C
И ради забавы, ради прикола
Em                           Bm
Фишка легла под кого-то другого.
В кармане и в сердце большая пустыня 
Мы как дрова для большого камина
Займи мое место, примерь мою цену, 
Возьми мою руку, сожми мою вену
Если ты тоже остался в живых 
Я буду рад разделить на двоих.. 

e)------------------------------------------
B)------------------------------------------
G)------------------------------------------
D)-----------------2/5-5-4-5-4-2------------
A)-0-0-0-3-3-3------------------------------
E)------------------------------------------

e)------------------------------------------
B)------------------------------------------
G)------------------------------------------
D)-----------------2/5-5-7-5-4-2------------
A)-0-0-0-3-3-3------------------------------
E)------------------------------------------

e)------------------------------------------
B)------------------------------------------
G)------------------------------------------
D)-----------------2/5-5-4-5-4-2------------
A)-0-0-0-3-3-3------------------------------
E)------------------------------------------

e)------------------------------------------
B)------------------------------------------
G)------------------------------------------
D)-----------------2/5-5-7-5-4-2------------
A)-0-0-0-3-3-3------------------------------
E)------------------------------------------

Сейчас
Кто-то быстрее, а кто-то повыше
Кто-то тоскует по сорванной крыше
Кто-то пасет, а кто-то пасует
Себя не жалея, собою рискует
Кто-то несет, а кого-то уносит
Он для себя ничего не попросит
Кто-то собрался в последний полет
Добрый вечер Москва, Салам-алейкум Нью-Йорк

И ради забавы, ради прикола
Фишка легла под кого-то другого.
В кармане и в сердце большая пустыня 
Мы как дрова для большого камина
Займи мое место, примерь мою цену, 
Возьми мою руку, сожми мою вену
Если ты тоже остался в живых 
Я буду рад разделить на двоих.. 

И ради забавы, ради прикола
Фишка легла под кого-то другого.
В кармане и в сердце большая пустыня 
Мы как дрова для большого камина
Займи мое место, примерь мою цену, 
Возьми мою руку, сожми мою вену
Если ты тоже остался в живых 
Я буду рад разделить на двоих..
Добавлено: 07.05.2016
Другие материалы по этой песне:
  • Аккорды и текст

Страница создана 07.05.2016
http://primanota.ru/provoda/90e-chords.htm
Привет, Гость.
Предлагаем пройти революционный курс по гитаре.
Подарок от PrimaNota.Ru, забирай!