PrimaNota.ru - самый крупный в мире бесплатный архив песенных текстов, аккордов, табулатур и нот


Prototype - Trinity - текст песни, таба, видео

Регистрация Запомнить меня
Войти через:  Facebook Google Twitter Vk Yandex Mail.ru

Prototype - Trinity - текст песни, таба, видео

Печатать
Просмотров: 255
Уроки эстрадного вокала в Санкт-Петербурге
Trinity – Prototype
Trinity 2002
Tuning D flat (DAFCGD)

Tab By Diego José González
Snakepit_diego@hotmail.com

Intro Clean
|----------------------------------|
|----------------------------------|
|-----0-----0---------0-----0------|
|-2h4-----4---4-----4-----4---4----|
|-------2-------2-3-----5-------5--|
|----------------------------------|

Intro Lead Solo
|-------------------------------------------------------12-10----------------------|
|-8p7-8~--5-7-8/10-8-7-5--5h8p5----13-10-12~---10-12-13-------13-12-10---12h13-12~-|
|----------------------------------------------------------------------------------|
|----------------------------------------------------------------------------------|
|----------------------------------------------------------------------------------|
|----------------------------------------------------------------------------------|

|---------------------------------------15-12-14-------------------------------------|
|-8p7-8-8br--5-7-8/-10-8-7-5-5h8p5---------------15------12-13-12h13p12h13p12h13p12--|
|-----------------------------------------------------14-----------------------------|
|------------------------------------------------------------------------------------|
|------------------------------------------------------------------------------------|
|------------------------------------------------------------------------------------|


Riff A (0:26-1:01)
|----------|----------------|--------------------------------------------------|
|----------|!!This is played|--------------------------------------------------|
|----------|every riff C end|--------------------------------------------------|
|-2------2-|----------------|----------------------5---7--5------7-----5-------|
|-2---2--2-|-------------4-4|----------------------5---5--5------5-----5-4-4---|
|-0-0-2--0-|-55-55-33-33-2-2|-22223p222223p2223p2--3-3-5--3--55555-33333-2-2---|
pm  -        -- -- -- -- - -  ----   ----  ---       -       ----  ----  - -

Chorus
|--------------------------------------------------|
|--------------------------------------------------|
|--------------------------------------------------|
|---(2)----------(2)----------(2)----------------%-|
|---(2)------2-3-(3)------3-0-(0)----0-------------|
|-0------------------------------------3~--3-2~--2-|
|Guitar 2
|---(7)----------(7)----------(7)------------------|
|---(5)----------(5)----------(5)------------------|
|---(4)----------(4)----------(4)------------------|
|--------------------------------------------------|
|--------------------------------------------------|
|--------------------------------------------------|


Riff B
|-----------------------------|--------------------|
|-----------------------------|--------------------|
|-----------------------------|--------------------|
|-----0------0-----0----------|-----0--------4p0---|
|---2------0-----0------------|-0-2---2--0-2-------|
|-0------2-----3-----/5--3--2-|--------------------|
Pm                              - -      - -

Riff C (Remember What You Are…)
|-------------------------------------------------------------------------------|
|-------------------------------------------------------------------------------|
|-------------------------------------------------------------------------------|
|-------------------------------------------------------------------------------|
|-5p2-2222-5p2-2222224444-5p4-4444-5p4-4444-7p5-5555-7p5-555555-7777-9--5-2-----|
|---------------------------------------------------------------------------3-2-|
|Harmony
|-------------------------------------------------------------------------------|
|-------------------------------------------------------------------------------|
|-------------------------------------------------------------------------------|
|-4p0-0000-4p0-0000002222-4p2-2222-4p2-2222-5p4-4444-5p4-444444-5555-7--4-0-----|
|---------------------------------------------------------------------------2-0-|
|-------------------------------------------------------------------------------|
Pm    ----     ----------     ----     ----     ----     ------ ----
2nd Chorus
|---------------------------------------|-------------|-------------|
|---------------------------------------|-------------|-------------|
|---------------------------------------|-------------|-------------|
|---(2)-----------(2)----------(2)------|-------------|-------------|
|---(2)-------2-3-(3)------3-0-(0)----0-|-------------|--3~----3-5~-|
|-0-------------------------------------|-3---3-2---2-|-------------|
|Guitar 2
|---(7)-----------(7)----------(7)---------(7)--------------(7)-----|
|---(5)-----------(5)----------(5)---------(5)--------------(5)-----|
|---(4)-----------(4)----------(4)---------(4)--------------(4)-----|
|-------------------------------------------------------------------|
|-------------------------------------------------------------------|
|-------------------------------------------------------------------|


Break
|-----------------------------|---------------------------------------|
|-----------------------------|---------------------------------------|
|-----------------------------|---------------------------------------|
|-2--2--2--2----2--2--2--2----|-(2)------------(2)--------------------|
|-2--2--2--2----2--2--2--2----|-(2)-----4--5---(2)------------4-5-----|
|-0--0--0--0----0--0--0--0----|-(0)-----2--3---(0)------------2-3-----|
|pm  -  -  -    -  -  -  -              -  -                  - -
|-12-12-12-12---12-12-12-12---|--7------7-----|-7------7------7--7----|
|-12-12-12-12---12-12-12-12---|--8------10----|-9------10-----10-10---|
|-9--9--9--9----9--9--9--9----|--9------9-----|-9------9------9--9----|
|-----------------------------|---------------|-----------------------|
|-----------------------------|---------------|-----------------------|
|-----------------------------|---------------|-----------------------|

|---------------------------------------------------------------------------------|
|--------------------------------------/8------------------/10-----------------/9-|
|--------------------------------------/9------------------/9------------------/9-|
|-2-2-2-2---2-2-2-2---2-2-2-2---2-2-2-2---2-2-2-2---2-2-2-2---2-2-2-2---2-2-2-2---|
|-2-2-2-2---2-2-2-2---2-2-2-2---2-2-2-2---2-2-2-2---2-2-2-2---2-2-2-2---2-2-2-2---|
|-0-0-0-0---0-0-0-0---0-0-0-0---0-0-0-0---0-0-0-0---0-0-0-0---0-0-0-0---0-0-0-0---|
|pm all
|-7-7-7-7---7-7-7-7---7-7-7-7---7-7-7-7---7-7-7-7---7-7-7-7---7-7-7-7---7-7-7-7---|
|-10101010--10101010--8-8-8-8---8-8-8-8---10101010--10101010--9-9-9-9---9-9-9-9---|
|-9-9-9-9---9-9-9-9---9-9-9-9---9-9-9-9---9-9-9-9---9-9-9-9---9-9-9-9---9-9-9-9---|
|---------------------------------------------------------------------------------|
|---------------------------------------------------------------------------------|
|---------------------------------------------------------------------------------|

|-----------------------------|
|-----------------------------|
|-----------------------------|
|-2-2-2-2---2-2-2-2-2-2-2-2-2-|
|-2-2-2-2---2-2-2-2-2-2-2-2-2-|
|-0-0-0-0---0-0-0-0-0-0-0-0-0-|
|pm all
|-7-7-7-7---10101010----------|
|-10101010--10101010----------|
|-9-9-9-9---9-9-9-9-----------|
|-----------------------------|
|-----------------------------|
|-----------------------------|

Pre-Solo (Solo Rhythm)
|-7-7-7-7-----7-7-7-7-------------7-7-7-7-----7-7-7-7-------------7-7-7-7-----7-7-7-7-|
|-8-8-8-8-----8-8-8-8-------------10101010----10101010------------9-9-9-9-----9-9-9-9-|
|-7-7-7-7-----7-7-7-7-------------7-7-7-7-----7-7-7-7-------------7-7-7-7-----7-7-7-7-|
|-9-9-9-9-9-9-9-9-9-9-9-9-9-9-9-9-9-9-9-9-9-9-9-9-9-9-9-9-9-9-9-9-9-9-9-9-9-9-9-9-9-9-|
|-7-7-7-7-7-7-7-7-7-7-7-7-7-7-7-7-7-7-7-7-7-7-7-7-7-7-7-7-7-7-7-7-7-7-7-7-7-7-7-7-7-7-|
|-7-7-7-7-7-7-7-7-7-7-7-7-7-7-7-7-7-7-7-7-7-7-7-7-7-7-7-7-7-7-7-7-7-7-7-7-7-7-7-7-7-7-|
pm        - -         - - - - - -         - -         - - - - - -         - -

--------------7-7-7-7-----10101010-------------|
--------------10101010----10101010-------------|
--------------7-7-7-7-----7-7-7-7--------------|
--9-9-9-9-9-9-9-9-9-9-9-9-9-9-9-9-9-9-9-9-9-9--|
--7-7-7-7-7-7-7-7-7-7-7-7-7-7-7-7-7-7-7-7-7-7--|
--7-7-7-7-7-7-7-7-7-7-7-7-7-7-7-7-7-7-7-7-7-7--|
Pm- - - - - -         - -         - - - - - -

Solo
|-----------------------------------------------------7-------------10------|
|--------------------------------------7-8-7---7-8-10---10-8-7-8-10----9~~--|
|-9\7-\---------------------7-9-7---7-9-------9-----------------------------|
|------\---------9-7----7-9-------9-----------------------------------------|
|w.bar--\---7-10-----10-----------------------------------------------------|
|-down---\------------------------------------------------------------------|

--------------------------------------------------------7h10p7-----7h10/12p7-----|
-7h9--9br-----7-9-7h9p7--------14\12-12\10-\-----------8------8---8----------10--|
------------9-----------9~------------------\-------7h9----------9---------------|
---------------------------------------------\-----------------------------------|
----------------------------------------------\----------------------------------|
---------------------------------------------------------------------------------|

-12-14-15-16p12----------/17--16-16-14-14-14h16p14-12~----|
----------------12----------------------------------------|
-------------------13~~-----------------------------------|
----------------------------------------------------------|
----------------------------------------------------------|
----------------------------------------------------------|

Solo (2nd part)(Guitar 2 plays Intro)
|------------------------------------------------------------------|
|-15fb----13h15p13p12---13-12h13p12-10-12-10br---10-12-------------|
|--------------------------------------------------------11h12p12--|
|------------------------------------------------------------------|
|------------------------------------------------------------------|
|------------------------------------------------------------------|

----------------------------------|
----------------------------------|
-11-12---11h12p11p9-12-11br--(9)--|
----------------------------------|
----------------------------------|
----------------------------------|


Outro Clean
|----------------------------------------------------------------------|
|----------------------------------------------------------------------|
|----------------------------------------------------------------------|
|-----2-----0----------2-----0----------2-----0----------0-----0-------|
|---2-----2---2------2-----2---2------2-----2---2------0-----0-------%-|
|-0-----0-------0--2-----2-------2--3-----3-------3--5-----3-----3-2---|


Riff C (VARIATION)
|---------------------------------------------------------------------------|
|---------------------------------------------------------------------------|
|---------------------------------------------------------------------------|
|---------------------------------------------------------------------------|
|-----------------------------------------------------------------7---------|
|-2p0-0000-2p0 000002222-3p2-2222-3p2-2222-5p3-3333-5p3-3333335555--5-3-2-0-|

Play Chorus and end with:

|----------------------------------|
|----------------------------------|
|----------------------------------|
|-2-2-2-2--2-2-2-2-----------------|
|-2-2-2-2--2-2-2-2-----------------|
|-0-0-0-0--0-0-0-0-----------------|
|
|-12121212-12121212----------------|
|-12121212-12121212----------------|
|-9-9-9-9--9-9-9-9-----------------|
|----------------------------------|
|----------------------------------|
|----------------------------------|
Добавлено: 08.06.2012
Другие материалы по этой песне:
  • Аккорды и текст

Страница создана 08.06.2012
http://primanota.ru/prototype/trinity-chords.htm
Привет, Гость.
Предлагаем пройти революционный курс по гитаре.
Подарок от PrimaNota.Ru, забирай!