PrimaNota.ru - самый крупный в мире бесплатный архив песенных текстов, аккордов, табулатур и нот


Prototype - Heart Machine - таба, видео

Регистрация Запомнить меня
Войти через:  Facebook Google Twitter Vk Yandex Mail.ru

Prototype - Heart Machine - таба, видео

Печатать
Просмотров: 103
TAB BY DIEGO JOSE GONZALEZ  http://www.youtube.com/user/diegojosegonzalez


Heart Machine – Prototype
Continuum 2006


[Main Riff]
e|-------------------------------------------|
B|-------------------------------------------|
G|-------------------------------------------|
D|-------------------------------------------|
A|-------------------------------------------|
D|-1--3--1--0--1--3--88888888777773333333----|
Pm --------------------------------------

e|-------------------------------------------------------------------|
B|-------------------------------------------------------------------|
G|-------------------------------------------------------------------|
D|-------------------------------------------------------------------|
A|----------------------------------------------------------1p0------|
D|-7h8-5555555-8h10-5555555-7h8-55555-7h8-55555-0h1h3p1-0h1-----3p1--|
Pm     -------      -------     -----     -----

e|---------------------------------------|
B|---------------------------------------|
G|-(3)----3/14\10/12\7/10----------------|
D|-(3)-----------------------------------|
A|-(1)----1/12\8-/10\5/8-----------------|
D|---------------------------------------|


[ Verses]                                Encoded lines of energy……
e|------------------------|-------------------------|------------------------|
B|------------------------|-------------------------|------------------------|
G|------------------------|-------------------------|------------------------|
D|-1-0-1-----1-0-1-----1-1|-2h3/6-----2h3/6-----2/6-|1/5-5-----1/5-5-----1/5-|
A|-1-0-1-----1-0-1-----1-1|-2h3/6-----2h3/6-----2/6-|1/5-5-----1/5-5-----1/5-|
D|-1-0-1-0-0-1-0-1-0-0-1-1|-2h3/6-0-0-2h3/6-0-0-2/6-|1/5-5-0-0-1/5-5-0-0-1/5-|
Pm       - -       - -            - -       - -            - -       - -


       Once Again          Breathing        to     Transcend
e|------------------------|---------------------|-----------------------|
B|------------------------|---------------------|-----------------------|
G|------------------------|---------------------|-----------------------|
D|------------------------|---------------------|-1/3-----1/3-----1/3---|
A|------------------------|---------------------|-1/3-----1/3-----1/3---|
D|-10p8h10-0-0-10p8h10-0-0|--5p3h5-0-0-5p3h5-0-0|-1/3-0-0-1/3-0-0-1/3---|
Pm         - -         - -         - -       - -      - -     - -


Repeat*
Chorus [Main Riff]
Verses


Pre-Solo

Heart         Machine!  
e|-------------------------------------------|
B|-------------------------------------------|
G|--3--5--7--8--15-14----3/14\10/12\7/10-----|
D|-------------------------------------------|
A|--1--3--5--6--13-12----1/12\8-/10\5/8------|
D|-------------------------------------------|


Solo

e|---------------------------------------------------------------------------|
B|---------------------------------------------------------------------------|
G|-----14br14-15-14h15p14-15b-14-15-14-12-14-12-10-12-10-9-7-9-7-5-7-5-3-2b--|
D|---15----------------------------------------------------------------------|
A|-17------------------------------------------------------------------------|
D|---------------------------------------------------------------------------|

e|---------------------------------------------------------------------------|
B|---------------------------------------------------------------------------|
G|-0h2h3h5p3p2------0h2h3/14h15p14p12h14p12-10h12p10p8-7b5-8br7-[5]----------|
D|------------3p2p0----------------------------------------------------------|
A|---------------------------------------------------------------------------|
D|---------------------------------------------------------------------------|

e|---------------------------------------------------------------------------|
B|---------------------------------------------------------------------------|
G|-12-14-15-14-12----------14-15-17-15-14----------15-17-19-17-15-17-19/20---|
D|----------------15-13-12----------------17-15-14---------------------------|
A|---------------------------------------------------------------------------|
D|---------------------------------------------------------------------------|

e|----------------15-20-15-14-15p11—14p11—-13p11---------|
B|--------------13-----------------13----13-----13—7b----|
G|-17---------12-----------------------------------------|
D|---16-----13-------------------------------------------|
A|-----15-15---------------------------------------------|
D|-------------------------------------------------------|

e|-15p10------10h15p10------15p10------10h15p10-----151515---|
B|------11--11--------11--11-----11--11--------11------------|
G|--------12------------12---------12------------12----------|
D|-----------------------------------------------------------|
A|-----------------------------------------------------------|
D|-----------------------------------------------------------|

e|-13p8------8h13p8-------8h13p8------8h13p8----------------|
B|-----10--10-------10--10------10--10------10--------------|
G|-------11-----------11----------11----------11------------|
D|----------------------------------------------------------|
A|----------------------------------------------------------|
D|----------------------------------------------------------|

e|-13-13-13-11-11-11-11-11-10-11-10-8-10-8-6-8-6-5-6-5-3-5-3-----------------|
B|------------------------------------------------------------3b------5/13---|
G|--------------------------------------------------------------3-4-5--------|
D|---------------------------------------------------------------------------|
A|---------------------------------------------------------------------------|
D|---------------------------------------------------------------------------|

                  Fast picking
e|-17fb15--------15-17h18[18]18br17---------------15171817151715--15---------|
B|-------18fb-18--------------------15171817151718--------------18--18171817-|
G|---------------------------------------------------------------------------|
D|---------------------------------------------------------------------------|
A|---------------------------------------------------------------------------|
D|---------------------------------------------------------------------------|


e|---------------------------------------------------1517--|
B|-151715--15----------------------------------151718------|
G|-------17--17151715141514--14----------141517------------|
D|-------------------------17--1715141517------------------|
A----------------------------------------------------------|
D|---------------------------------------------------------|

e|-17br-15~-13-15-17-15-15p13h15----------|
B|-------------------------------15~------|
G|----------------------------------------|
D|----------------------------------------|
A|----------------------------------------|
D|----------------------------------------|



Добавлено: 22.02.2012
Другие материалы по этой песне:

Страница создана 22.02.2012
http://primanota.ru/prototype/heart-machine-chords.htm
Привет, Гость.
Предлагаем пройти революционный курс по гитаре.
Подарок от PrimaNota.Ru, забирай!