PrimaNota.ru - самый крупный в мире бесплатный архив песенных текстов, аккордов, табулатур и нот


Protomartyr - Maidenhead - таба, бас-таба, видео

Регистрация Запомнить меня
Войти через:  Facebook Google Twitter Vk Yandex Mail.ru

Protomartyr - Maidenhead - таба, бас-таба, видео

Печатать
Просмотров: 122
Уроки эстрадного вокала в Санкт-Петербурге
-------------------------------------------------------------------------------
                             Maidenhead - Protomartyr
-------------------------------------------------------------------------------

Tuning: Standard

Not sure about all of the lyrics

Dbm (occasionally play the 7th)

e|---------------------------------------------------------------------------|
B|---------------------------------------------------------------------------|
G|--------------4-4-------------4-4-6-6-4-4---------------------4-4----------|
D|--6-6-4-4-6-6-----6-6-4-4-6-6-------------6-6-4-4-6-6-4-4-6-6--------------|
A|---------------------------------------------------------------------------|
E|---------------------------------------------------------------------------|

e|---------------------------------------------------------------------------|
B|------------------5-5-4-4--------------------------------------------------|
G|--------------4-4---------6-6-4-4-------------4-4-------------4-4----------|
D|--6-6-4-4-6-6---------------------6-6-4-4-6-6-----6-6-4-4-6-6--------------|
A|---------------------------------------------------------------------------|
E|---------------------------------------------------------------------------|

e|---------------------------------------------------------------------------|
B|--------------------------------------------------5-5-4-4------------------|
G|--6-6-4-4---------------------4-4-------------4-4---------6-6-4-4----------|
D|----------6-6-4-4-6-6-4-4-6-6-----6-6-4-4-6-6------------------------------|
A|---------------------------------------------------------------------------|
E|---------------------------------------------------------------------------|

Dbm
She goes up, she goes down
One of my dead moods

e|---------------------------------------------------------------------------|
B|---------------------------------------------------------------------------|
G|--------------4-4-------------4-4-6-6-4-4---------------------4-4----------|
D|--6-6-4-4-6-6-----6-6-4-4-6-6-------------6-6-4-4-6-6-4-4-6-6--------------|
A|---------------------------------------------------------------------------|
E|---------------------------------------------------------------------------|

e|---------------------------------------------------------------------------|
B|------------------5-5-4-4--------------------------------------------------|
G|--------------4-4---------6-6-4-4-------------4-4-------------4-4----------|
D|--6-6-4-4-6-6---------------------6-6-4-4-6-6-----6-6-4-4-6-6--------------|
A|---------------------------------------------------------------------------|
E|---------------------------------------------------------------------------|

e|---------------------------------------------------------------------------|
B|--------------------------------------------------5-5-4-4------------------|
G|--6-6-4-4---------------------4-4-------------4-4---------6-6-4-4----------|
D|----------6-6-4-4-6-6-4-4-6-6-----6-6-4-4-6-6------------------------------|
A|---------------------------------------------------------------------------|
E|---------------------------------------------------------------------------|

Dbm
She goes up, she goes down
One of my dead moods
Just a clack in the brain yea
A clack and a brain yea

A                     E
Dont feel nothing for anyone
A                     E
Dont feel no love for anything
A                     E
Dont feel nothing for anyone
A                     E
Dont feel no love for anything

e|---------------------------------------------------------------------------|
B|---------------------------------------------------------------------------|
G|--------------4-4-------------4-4-6-6-4-4---------------------4-4----------|Its just a clack in the brain yea
D|--6-6-4-4-6-6-----6-6-4-4-6-6-------------6-6-4-4-6-6-4-4-6-6--------------|
A|---------------------------------------------------------------------------|
E|---------------------------------------------------------------------------|

e|---------------------------------------------------------------------------|
B|------------------5-5-4-4--------------------------------------------------|
G|--------------4-4---------6-6-4-4-------------4-4-------------4-4----------|A clack in the brain yea
D|--6-6-4-4-6-6---------------------6-6-4-4-6-6-----6-6-4-4-6-6--------------|
A|---------------------------------------------------------------------------|
E|---------------------------------------------------------------------------|

e|---------------------------------------------------------------------------|
B|--------------------------------------------------5-5-4-4------------------|
G|--6-6-4-4---------------------4-4-------------4-4---------6-6-4-4----------|Its just a clack in the brain yea
D|----------6-6-4-4-6-6-4-4-6-6-----6-6-4-4-6-6------------------------------|
A|---------------------------------------------------------------------------|
E|---------------------------------------------------------------------------|

Dbm
Maidenhead, here I come
I am alright

e|---------------------------------------------------------------------------|
B|---------------------------------------------------------------------------|
G|---------------------------------------------------------------------------|  15x
D|------6-6-------------6-6-------------6-6----------------------------------|
A|--4-4-----4-4-2-2-4-4-----4-4-2-2-4-4-----4-4-2-2--------------------------|
E|---------------------------------------------------------------------------|

Dbm
She goes up, she goes down
One of my dead moods
I....
Добавлено: 05.08.2015
Другие материалы по этой песне:
  • Аккорды и текст

Страница создана 05.08.2015
http://primanota.ru/protomartyr/maidenhead-chords.htm
Привет, Гость.
Предлагаем пройти революционный курс по гитаре.
Подарок от PrimaNota.Ru, забирай!