PrimaNota.ru - самый крупный в мире бесплатный архив песенных текстов, аккордов, табулатур и нот


Protomartyr - Come See - аккорды и текст, видео

Регистрация Запомнить меня
Войти через:  Facebook Google Twitter Vk Yandex Mail.ru

Protomartyr - Come See - аккорды и текст, видео

Печатать
Просмотров: 183
Come See
Protomartyr
-------------------------------------------------------------------------------
                             Come & See - Protomartyr
-------------------------------------------------------------------------------

Tuning: Standard

    Abm7  Dbm7  Ebm7  Bbmish  G#ish  F#7  Bm  E
e|--11----4-----6-----6-------4------2----7-------------------------------------|
B|--12----5-----7-----6-------4------2----7-------------------------------------|
G|--11----4-----6-----6-------4------3----8---1---------------------------------|
D|--13----6-----8-----6-------4------2----9---2---------------------------------|
A|--11----4-----6-----8-------6------4----9---2---------------------------------|
E|--11----4-----6-----6-------4------2----7-------------------------------------|


Intro and Verse 1:

Abm7 Dbm7 Ebm7 Bbmish
Abm7 Dbm7 G#ish F#7

Have you heard the bad news?
We've been saved by both coasts
A bag of snakes with heads of gas
The pumpkin head cuts right in on the glass

Chorus:

e|-------------------------------------------------|
B|-------------------------------------------------|
G|-------------------------------------------------|
D|-------------------------------------------------|
A|-------------------------------------------------|
E|--1212121212121212121212-77777777777777777-------| 2x

e|---------------------------------------------------------------------------|
B|---------------------------------------------------------------------------|
G|---------------------------------------------------------------------------|
D|---------------------------------------------------------------------------|
A|---------------------------------------------------------------------------|
E|--1212121212121212121212-999999999999999-44444444444444-77777777777777777--|

e|---------------------------------------------------------------------------|
B|---------------------------------------------------------------------------|
G|---------------------------------------------------------------------------|
D|---------------------------------------------------------------------------|
A|---------------------------------------------------------------------------|
E|--1212121212121212121212-999999999999999-44444444444444-22222222222222222--|

And I'll try to live defeated
Come and see
THE GOOD IN EVERYTHING
Outside animals sound
Come and see
THE OPEN ENDING

Verse 2:

Abm7 Dbm7 Ebm7 Bbmish
Abm7 Dbm7 G#ish F#7

Let it snow and face them in their minds
Count their money with broken arms
Come as friends, are you ready to be capitalized
In this town, in this hole?

Chorus:

e|-------------------------------------------------|
B|-------------------------------------------------|
G|-------------------------------------------------|
D|-------------------------------------------------|
A|-------------------------------------------------|
E|--1212121212121212121212-77777777777777777-------| 2x

e|---------------------------------------------------------------------------|
B|---------------------------------------------------------------------------|
G|---------------------------------------------------------------------------|
D|---------------------------------------------------------------------------|
A|---------------------------------------------------------------------------|
E|--1212121212121212121212-999999999999999-44444444444444-77777777777777777--|

e|---------------------------------------------------------------------------|
B|---------------------------------------------------------------------------|
G|---------------------------------------------------------------------------|
D|---------------------------------------------------------------------------|
A|---------------------------------------------------------------------------|
E|--1212121212121212121212-999999999999999-44444444444444-22222222222222222--|

And I'll try to live defeated
Come and see
THE GOOD IN EVERYTHING
Outside animals sound
Come and see
THEN LEAD US ALL TO HEAVEN

Break:

E Bm 2x
E Dbm7 G#ish Ebm7 2x

Chorus

E Bm 2x
E Dbm7 G#ish Ebm7 2x

And I'll try to live defeated
Come and see
THE GOOD IN EVERYTHING
Outside, outside animals sound
Come and see
Добавлено: 05.08.2015
Вам также может быть интересно:
Другие материалы по этой песне:
  • Аккорды и текст

Страница создана 05.08.2015
http://primanota.ru/protomartyr/come-see-chords.htm
Привет, Гость.
Предлагаем пройти революционный курс по гитаре.
Подарок от PrimaNota.Ru, забирай!