PrimaNota.ru - самый крупный в мире бесплатный архив песенных текстов, аккордов, табулатур и нот


Protest The Hero - Tapestry - текст песни, таба, видео

Регистрация Запомнить меня
Войти через:  Facebook Google Twitter Vk Yandex Mail.ru

Protest The Hero - Tapestry - текст песни, таба, видео

Печатать
Просмотров: 259
---------------------------------------------------------------------------
                            TAPESTRY - Protest The Hero                    
---------------------------------------------------------------------------
Tabbed by: Monkeymas
Email: aj_strachan@hotmail.co.uk

Tuning:Eb

INTRO/VERSE 
Guitar 1 & 2 0:00
e|-------------------------------------------------------------------------|
B|-------------5---85-7---5---------------------5---875875-------242-------|
G|----------6----6------6--64----------------6----6-------6---------1------|
D|-4----5-4---4--------------645----4----5-4---4-----------7----4----2-----|
A|--4-7--------------------------4---4-7--------------------7402-----------|
E|-------------------------------------------------------------------------|

Guitar 1
e|----------------------------------------------------------------7--------|
B|-------------5---85-7---5---------------------5-----------579579---------|
G|----------6----6------6--64----------------6----6--------4---------------|
D|-4----5-4---4--------------645----4----5-4---4------2-246----------------|
A|--4-7--------------------------4---4-7------------02-2-------------------|
E|-------------------------------------------------------------------------|

Guitar 2 0:11
e|-------------------------------------------------------------------------|
B|-------------5---85-7---5---------------------5--------------------------|
G|----------6----6------6--64----------------6----6--2------4--------------|
D|-4----5-4---4--------------645----4----5-4---4-----2------4--------------|
A|--4-7--------------------------4---4-7-------------0------2--------------|
E|-------------------------------------------------------------------------|

Guitar 2 0:14
e|-------------------------------------------------------------------------|
B|-------------------------------------------------------------------------|
G|--------------------------------------------------------4----------------|
D|-66-6-6-6------------------------66-6-6-6-------2-------4----------------|
A|-44-4-4-42-2-44-455-5-5-54-4-2-2-44-4-4-42-2-44-2-------2----------------|
E|---------0-0-22-233-3-3-32-2-0-0---------0-0-22-0------------------------|
   xx x x xx x xx xxx x x xx x x x xx x x xx x xx x

0:28
e|------------------------------3------------------------31-----------|
B|--------------------25----5--------------------------25--532--------|
G|---------------24-24--22-2-3---3----------------24-24-------42------|
D|----2--------24-------------2---2----2--------24--------------530---|
A|-024-00-0-024----------------0---0024-00-0-024-------------------2--|
E|------------------------------------------------------------------3-|

0:47
e|----------------------------------------------------------------------|
B|----------------------------------------------------------------------|
G|------------------------------------------------2----2----------------|
D|---------6-------4-------------6-------4------------------------------|
A|------------------------------------------343034--430-4303430---------|
E|-22-2-2-2--2-22-2--2-1-22-2-2-2--2-2222--1-------------------2-22-22-2|
                                                               x xx xx x

************************************

| /   slide up
| \   slide down
| h   hammer-on
| p   pull-off
| ~   vibrato
| +   harmonic
| x   Mute note
| b   Bend
| pb  Pre-bend
| br  Bend release
| pbr Pre-bend release
| brb Bend release bend

************************************
Добавлено: 04.03.2012
Другие материалы по этой песне:

Страница создана 04.03.2012
http://primanota.ru/protest-the-hero/tapestry-chords.htm
Привет, Гость.
Предлагаем пройти революционный курс по гитаре.
Подарок от PrimaNota.Ru, забирай!