PrimaNota.ru - самый крупный в мире бесплатный архив песенных текстов, аккордов, табулатур и нот


Protest The Hero - Sans Fromage - таба, видео

Регистрация Запомнить меня
Войти через:  Facebook Google Twitter Vk Yandex Mail.ru

Protest The Hero - Sans Fromage - таба, видео

Печатать
Просмотров: 77
Sans Fromage (demo) by Protest The Hero

This is just one of the last riffs in the song, my favorite part

Key
~ let note ring
b( ) bend string to number in parenthesis
(PM) line is palm muted
(T) line is tapped


Guitar 1
Eb|------------------------------7--9--10--|
Bb|--------------------7--9--10------------|
Gb|-----------6--7--9----------------------|
Db|--6--7--9-------------------------------|
Ab|----------------------------------------|
Eb|----------------------------------------|

Guitar 1
|--12~~~~~~~~~~~~~~~~~~~~~~~~~~~~~~~~~~~~12b(14)~~~~~~~~~~~~~~~
|--------------------------------------------------------------|
|--------------------------------------------------------------|
|--------------------------------------------------------------|
|--------------------------------------------------------------|
|--------------------------------------------------------------|
&
Guitar 2
eb|-----------------------------5--9--5--12--9-----------------|
Bb|-----------------------5---------------------10-------------|
Gb|-----------------6--------6----------------------9----------|
Db|-----------7--------7-------------------------------11------|
Ab|-----7--------7-----------------------------------------12--|
Eb|--5-----9---------------------------------------------------|

Guitar 1
E|--12~~~~~~~~~~~~~~~~~~~~~~~~~~~~~~~~~~10--9-~~~~~~~~~~~~~~~~~~~~~~~-|
B|--------------------------------------------------------------------|
G|--------------------------------------------------------------------|
D|--------------------------------------------------------------------|
A|--------------------------------------------------------------------|
E|--------------------------------------------------------------------|
&
Guitar 2
|----------------------------------9-----12--16--12------------------|
|----------------------------9--------9--------------14--------------|
|---------------------9---------9------------------------13----------|
|-------------11---------11----------------------------------14------|
|-----11----------11---------------------------------------------16--|
|--9------12---------------------------------------------------------|

Guitar 1
|--7--5~~~~~~~~~~~~~~~~~~~~~~~~~~-|
|---------------------------------|
|---------------------------------|
|---------------------------------|
|---------------------------------|
|---------------------------------|
&
|-----------------------------9--|
|---------------------10---------|
|-------------11----------11-----|
|-----11----------11-------------|
|--9------12---------------------|
|--------------------------------|

Guitar 2 (PM)
|---------------------------------------7-7--|
|-----------------------------9-9------------|
|-------------------9-9------------9-9-------|
|-------9-9--------------9-9-----------------|
|--7-7-------11-11---------------------------|
|--------------------------------------------|

Guitar 2
|------------------------------10--|
|----------------------12----------|
|--------------12----------12------|
|------12----------12--------------|
|--10------14----------------------|
|----------------------------------|

Guitar 2 (PM)
|-------------------------------------5-5--|
|---------------------------7-7------------|
|-----------------7-7------------7-7-------|
|-------7-7------------7-7-----------------|
|--5-5-------9-9---------------------------|
|------------------------------------------|

Guitar 2
|-----------------------------5--9--5--12--9-----------------|
|-----------------------5---------------------10-------------|
|-----------------6--------6----------------------9----------|
|-----------7--------7-------------------------------11------|
|-----7--------7-----------------------------------------12--|
|--5-----9---------------------------------------------------|

Guitar 2
|----------------------------------9-----12--16--12------------------|
|----------------------------9--------9--------------14--------------|
|---------------------9---------9------------------------13----------|
|-------------11---------11----------------------------------14------|
|-----11----------11---------------------------------------------16--|
|--9------12---------------------------------------------------------|

Guitar 2
|-----------------------------9--|
|---------------------10---------|
|-------------11----------11-----|
|-----11----------11-------------|
|--9------12---------------------|
|--------------------------------|

Guitar 2
|--10--9-------------10--9------|
|---------10----------------10--|
|-------------11--9-------------|
|-------------------------------|
|-------------------------------|
|-------------------------------|

Guitar 2
|----------------------12--16--17--|
|------------------14--------------|
|--------------14------------------|
|----------14----------------------|
|--12--16--------------------------|
|----------------------------------|

Guitar 2 (T)
|--------------------------17------------------16--17--16--14--12--|
|--17--12--16--17--12--17------17--12--16--17----------------------|
|------------------------------------------------------------------|
|------------------------------------------------------------------|
|------------------------------------------------------------------|
|------------------------------------------------------------------|

This is a demo recorded for the album Scurrilous.
All of their albums are transcribed at http://www.sheethappenspublishing.com/
Support the band they're awesome dudes!
Добавлено: 21.04.2016
Другие материалы по этой песне:
  • Аккорды и текст

Страница создана 21.04.2016
http://primanota.ru/protest-the-hero/sans-fromage-chords.htm
Привет, Гость.
Предлагаем пройти революционный курс по гитаре.
Подарок от PrimaNota.Ru, забирай!