PrimaNota.ru - самый крупный в мире бесплатный архив песенных текстов, аккордов, табулатур и нот


Protest The Hero - Bone Marrow - текст песни, таба, бас-таба, видео

Регистрация Запомнить меня
Войти через:  Facebook Google Twitter Vk Yandex Mail.ru

Protest The Hero - Bone Marrow - текст песни, таба, бас-таба, видео

Печатать
Просмотров: 339
-------------------------------------------------------------------------------
                     Bone Marrow Outro by Protest the Hero
-------------------------------------------------------------------------------
Tabbed by: zildjian215
Email: zildjian215@gmail.com

Tuning: Standard

This song is off an amazing album; the outro to this song sounded cool so I tabbed it 
The rest of the song may not be in standard tuning, but I've written this tab in standard tuning.


e------------------------------------|
B------------------------------------|
G--5/7-5-7/9~---5/7-5-7/9------------|
D-------------------------7\5~-------|x2
A------------------------------------|
E------------------------------------|

e------------------------------------|
B-------------------8/10-------------|
G--5/7-5-7/9----7/9------9~--7~------|
D------------------------------------|
A------------------------------------|
E------------------------------------|

| /  slide up
| \  slide down
| h  hammer-on
| p  pull-off
| ~  vibrato
| +  harmonic
| x  Mute note
===============================================================================
Добавлено: 23.04.2012
Другие материалы по этой песне:

Страница создана 14.03.2012
http://primanota.ru/protest-the-hero/bone-marrow-chords.htm
Привет, Гость.
Предлагаем пройти революционный курс по гитаре.
Подарок от PrimaNota.Ru, забирай!