PrimaNota.ru - самый крупный в мире бесплатный архив песенных текстов, аккордов, табулатур и нот


Prostitute Disfigurement - Left In Grisly Fashion - таба, видео

Регистрация Запомнить меня
Войти через:  Facebook Google Twitter Vk Yandex Mail.ru

Prostitute Disfigurement - Left In Grisly Fashion - таба, видео

Печатать
Просмотров: 71
Prostitute Disfigurement
Left In Grisly Fashion
The Corpse Garden


.  - palm mute           /  - slide up to
\  - slide down to       ~  - vibrato
h  - hammer on           b  - Bend
p  - pull off            Suffixes for bend
t  - tap                 f  - full bend    h - half bend
ph - pinched harmonic    q  - quarter bend t - tap bend
*  - see comment         ^  - Hold bend    r release bend
x  - Stuccatto           ~  - vibrato bend
,  - slight palm mute    () - ghost note, sustained note
"  - tremolo note        <> - Trill

* @=10

Tuning is D standard

Riff A x8        |1-3, 5-7                  |4, 8
|----------------|--------------------------|--------------------------|
|----------------|--------------------------|--------------------------|
|----------------|--------------------------|--------------------------|
|----------------|--------------------------|-----------3333-----------|
|----------------|--------------------------|-2222-1111----------------|
|-6666-3333-0000-|-1111-3333-0000-8888-0000-|----------------1111-4444-|

Passage
  |gtr1 (Riff B)
  |-------------------------------------------------------------|
  |-------------------------------------------------------------|
  |-------------------------------------------------------------|
  |-------------------------------------------------------------|
  |-----------7777-----------4444------6666-7777-8887\555-------|
  |-0000-6666------5500-3333------0000-6666---------------4444--|
  |
  |gtr2
  |-------------------------------------------------------------|
  |-------------------------------------------------------------|
  |-------------------------------------------------------------|
  |-2-----------------------------------------------------------|
  |-2-----------------------------------------------------------|
  |-0-----------------------------------------------------------|

  |gtr1 (Riff B)
  |-------------------------------------------------------------|
  |-------------------------------------------------------------|
  |-------------------------------------------------------------|
  |-------------------------------------------------------------|
  |-----------7777-----------4444------6666-7777-8887\555-------|
  |-0000-6666------5500-3333------0000-6666---------------4444--|
  |
  |gtr2
  |-------------------------------------------------------------|
  |-------------------------------------------------------------|
  |-------------------------------------------------------------|
  |-2---------------------------------------9999-@@@9\777-------|
  |-2-----------------------------------------------------6-----|
  |-0-----------------------------------------------------4-----|

Riff B x4

Riff C x4
|----------------------------------------------------------|
|----------------------------------------------------------|
|----------------------------------------------------------|
|------9999----------9999-88888888------77777777-55555555--|
|------7777-@@@@@@@@-7777-66666666-9999-55555555-33333333--|
|-0000------88888888---------------7777--------------------|

Riff B x2

Riff D x2
|----------------------------------------------------------------|
|----------------------------------------------------------------|
|----------------------------------------------------------------|
|----------------------------------------------------------------|
|----------------------------------------------------------------|
|-0000-6666-9999-0000-3333-6666-0000-6666-9999-@@@@\6666-3333----|
  .... .... .... .... .... .... .... .... .... ......... ....

Riff C x4
Riff A x8

Riff E x4                          |1-3       |4
|----------------------------------|----------|---------|
|----------------------------------|----------|---------|
|----------------------------------|----------|---------|
|-2------T-----------T-------------|----------|---------|
|-2/(7)--13p10p7-h10-13---11111111-|-00000000-|-0000-2--|
|-0-----------------------33333333-|-11110000-|-1111-0--|

Riff F x4
|-------------------------------------------------------------|
|-------------------------------------------------------------|
|-------------------------------------------------------------|
|-------------------------------------------------4--5--------|
|-5-5-5-5-5-5-6-6-6-6-6-6-2-2-2-2-2-2-3-3-3-3-3-3-2--3--3--6--|
|-3-3-3-3-3-3-4-4-4-4-4-4-0-0-0-0-0-0-1-1-1-1-1-1-------1--4--|
  . . . . . . . . . . . . . . . . . . . . . . . .

Riff E x4
Riff F x4
Riff B x4
Riff C x4
Riff A x8
Riff F x4

Finally, both guitars play this under Riff F until fade out

|L
|-------------------------------------------------|
|-------------------------------------------------|
|-15p14p12-x3-16p15p13-x3-------------------------|
|-------------------------17p16p14-x3-18p17p15-x7-|
|-------------------------------------------------|
|-------------------------------------------------|
|
|R
|-------------------------------------------------|
|-18p17p15-x3-19p18p16-x3-------------------------|
|-------------------------19p18p16-x3-20p19p17-x7-|
|-------------------------------------------------|
|-------------------------------------------------|
|-------------------------------------------------|


END
Добавлено: 18.10.2013
Другие материалы по этой песне:
  • Аккорды и текст

Страница создана 18.10.2013
http://primanota.ru/prostitute-disfigurement/left-in-grisly-fashion-chords.htm
Привет, Гость.
Предлагаем пройти революционный курс по гитаре.
Подарок от PrimaNota.Ru, забирай!