PrimaNota.ru - самый крупный в мире бесплатный архив песенных текстов, аккордов, табулатур и нот


Propeller - Eila Veel - таба, видео

Регистрация Запомнить меня
Войти через:  Facebook Google Twitter Vk Yandex Mail.ru

Propeller - Eila Veel - таба, видео

Печатать
Просмотров: 25
e |--------------------||   
B||--------------------||
G||-------------5------|| 4x
D||---9-97----57-7-----||
A||---7-75--------8----||
E||--------------------||

         Ei, ei, ei ...

e||-------------------------------------||
B||-------------------------------------||
G||-------------------------------------||
D||-999999988888887777777788888889999999||summutatult
A||-777777766666665555555566666667777777||mängib
E||-------------------------------------||

e||-----------------------||
B||-----------------------||
G||-----------------------||
D||-888888877777778888888-||
A||-666666655555556666666-||
E||-----------------------||

    Eila veel muretu ja meeldiv maailm näis
    kõik paigad olid päikest täis,
    nii oli see meil eila veel.

e||-------------------------------------------------|
B||-------------------------------------------------|
G||-------------------------------------------------|
D||-9-9-9-7-7-7-5-5-5-7-7-7-9-9-9-7-7-7-5-5-5-444444|
A||-7-7-7-5-5-5-3-3-3-5-5-5-7-7-7-5-5-5-3-3-3-222222|
E||-------------------------------------------------|

         Ei, ei, ei ...
 
e||-------------------------------------||
B||-------------------------------------||
G||-------------------------------------||
D||-999999988888887777777788888889999999||
A||-777777766666665555555566666667777777||
E||-------------------------------------||

e||-----------------------||
B||-----------------------||
G||-----------------------||
D||-888888877777778888888-||
A||-666666655555556666666-||
E||-----------------------||

    Eila veel olid minu vastu hell ja hea
    kuid täna ainult lootma pean,
    et eilne õnn meil korduks veel.

e||-------------------------------------------------|
B||-------------------------------------------------|
G||-------------------------------------------------|
D||-9-9-9-7-7-7-5-5-5-7-7-7-9-9-9-7-7-7-5-5-5-5-5-5-|
A||-7-7-7-5-5-5-3-3-3-5-5-5-7-7-7-5-5-5-3-3-3-3-3-3-|
E||-------------------------------------------------|

     Kes küll mõelda võis, et see kõik ka tabab meid,
     on ju sõnu häid, aga me ei leidnud neid.

e||---------------------||
B||------------5--------||
G||--4-4-7--------------||  4x
D||--------7-7----------||
A||---------------------||
E||---------------------||

   

e||-------------------------------------||
B||-------------------------------------||
G||-------------------------------------||
D||-999999988888887777777788888889999999||
A||-777777766666665555555566666667777777||
E||-------------------------------------||

e||-----------------------||
B||-----------------------||
G||-----------------------||
D||-888888877777778888888-||
A||-666666655555556666666-||
E||-----------------------||

    Täna siis tusatuju pilved kaasa tõi,
    varjud end me ümber kokku lõid
    ja ainus hetk meil rõõmud viis.

e||-------------------------------------------------|
B||-------------------------------------------------|
G||-------------------------------------------------|
D||-9-9-9-7-7-7-5-5-5-7-7-7-9-9-9-7-7-7-5-5-5-4-4-4-|
A||-7-7-7-5-5-5-3-3-3-5-5-5-7-7-7-5-5-5-3-3-3-2-2-2-|
E||-------------------------------------------------|

     Kes küll mõelda võis, et see kõik ka tabab meid,
     on ju sõnu häid, aga me ei leidnud neid.

e||---------------------||
B||------------5--------||
G||--4-4-7--------------||  4x
D||--------7-7----------||
A||---------------------||
E||---------------------||

      Ei, ei, ei, eila veel, ei, ei

e |--------------------||   
B||--------------------||
G||-------------5------|| palju kordi mängib
D||---9-97----57-7-----||
A||---7-75--------8----||
E||--------------------||
Добавлено: 10.12.2015
Другие материалы по этой песне:

Страница создана 27.03.2012
http://primanota.ru/propeller/eila-veel-chords.htm
Привет, Гость.
Предлагаем пройти революционный курс по гитаре.
Подарок от PrimaNota.Ru, забирай!