PrimaNota.ru - самый крупный в мире бесплатный архив песенных текстов, аккордов, табулатур и нот


Propaghandi - Ska Sucks - аккорды и текст, видео

Регистрация Запомнить меня
Войти через:  Facebook Google Twitter Vk Yandex Mail.ru

Propaghandi - Ska Sucks - аккорды и текст, видео

Печатать
Просмотров: 77
Уроки эстрадного вокала в Санкт-Петербурге
Ska Sucks
Propaghandi
Ska Sucks by Propagandhi
partly tabbed by Mathieu Gagne (hnll@yahoo.com)
for the original of Joe Vampire (jriska01@west.isd77.k12.mn.us)

h:Hammer
p:Pull off

The little riff

E|----------------------------------|
B|----------------------------------|
G|----------------------------------|
D|-------5-----5h6p5----------------|
A|-6-6-6---6-6-----------3-------5--|
E|-------------------4-4---4-6-6---6|

The chords

E|-6--4--6--|
B|-6--4--6--|
G|-8--5--7--|
D|-8--6--8--|
A|-6--6--8--|
E|-6--4--6--|

I'm not 100% sure that theses chords are good but the riff is good.

And Fuck the preps they should die!!!!!
     
Добавлено: 09.10.2013
Другие материалы по этой песне:
  • Аккорды и текст

Страница создана 12.03.2012
http://primanota.ru/propaghandi/ska-sucks-chords.htm
Привет, Гость.
Предлагаем пройти революционный курс по гитаре.
Подарок от PrimaNota.Ru, забирай!