PrimaNota.ru - самый крупный в мире бесплатный архив песенных текстов, аккордов, табулатур и нот


Propagandhi - Todays Empires Are Tommorows Ashes - таба, видео

Регистрация Запомнить меня
Войти через:  Facebook Google Twitter Vk Yandex Mail.ru

Propagandhi - Todays Empires Are Tommorows Ashes - таба, видео

Печатать
Просмотров: 80
“Today's Empiresare Tommorow's Ashes” by Propagandhi

::THIS IS NOT 100% CORRECT I'M STILL WORKING ON IT::


Standard Tuning
~ let note ring.
/ slide.
x palm mute.


Intro:
E|-----------|
B|-----------|
G|-----------|
D|-2222-2----|
A|-2222-2----|
E|-0000-0~~~-|


Verse 1(“The tangled webs...”)

E|------------------------|
B|------------------------|
G|------------------------|
D|------4-44--------------|
A|-222--2-22--777--777----| x4
E|-000--------555--555----|


Chorus 1(“The nail that...”):

E|----------------------------------|
B|----------------------------------|
G|----------------------------------|
D|----------4-444-------------------|
A|-222-2----2-222---7-777--7-777----| x4
E|-000-0------------5-555--5-555----|


Bridge(“Sometimes the ties that...”)

E|----------------------------------|
B|----------------------------------|
G|----------------------------------|
D|-4-444-4-444-/--6-666-------------|
A|-2-222-2-222-/--4-444--7-777------| x2
E|-----------------------5-555------|


Chorus 2(“Where federal bureaus...”):

E|----------------------------------|
B|----------------------------------|
G|----------------------------------|
D|----------4-444-------------------|
A|-222-2----2-222---7-777--7-777----| x2
E|-000-0------------5-555--5-555----|

Break:

E|---------------|
B|---------------|
G|---------------|
D|-44-66---------|
A|-22-44-7~~~----| x3
E|-------5~~~----|



Break pt.2(“But undercover of the...”):

E|----------------------|
B|----------------------|
G|----------------------|
D|--xxx-6---------------|
A|--xxx-4--xxx-7--------| x3
E|---------xxx-5--------|

(“Bask in the rocket's blinding red glare...”):
E|------------------------------------------------------|
B|------------------------------------------------------|
G|------------------------------------------------------|
D|--xxx-6-----------------------------------------------|
A|--xxx-4--xxx-7--xxx-7--xx-7--xxx-7--xxx-7--xx-7~~~~~--|
E|---------xxx-5--xxx-5--xx-5--xxx-5--xxx-5--xx-5~~~~~--|


Break pt.3 (“But the truth is!...”):
E|--------------------------|
B|--------------------------|
G|--------------------------|
D|-4~~~~----6~~~~-----------|
A|-2~~~~----4~~~~----7~~~~--| x2
E|-------------------5~~~~--|


Chorus 3(“An emblem of the...”):

E|----------------------------------|
B|----------------------------------|
G|----------------------------------|
D|----------4-444-------------------|
A|-222-2----2-222---7-777--7-777----| x4
E|-000-0------------5-555--5-555----|


Outro:

E|-----------------------|
B|-----------------------|
G|-----------------------|
D|-4--6------------------|
A|-2--4--7---------------| 
E|-------5---------------|


E|---------------|
B|---------------|
G|---------------|
D|--4~~----------|
A|--2~~--7~~-----| x8
E|-------5~~-----|

I'm working on the leads and will have them up soon. Thanks!





Добавлено: 09.04.2012
Другие материалы по этой песне:
  • Аккорды и текст

Страница создана 09.04.2012
http://primanota.ru/propagandhi/todays-empires-are-tommorows-ashes-chords.htm
Привет, Гость.
Предлагаем пройти революционный курс по гитаре.
Подарок от PrimaNota.Ru, забирай!